  0
SECTION
  2
HEADER
  9
$ACADVER
  1
AC1009
  9
$INSBASE
 10
0
 20
0
 30
0
  9
$EXTMIN
 10
0
 20
0
  9
$EXTMAX
 10
42000
 20
29700
  9
$LIMMIN
 10
0
 20
0
  9
$LIMMAX
 10
42000
 20
29700
  9
$LTSCALE
 40
100
  0
ENDSEC
  0
SECTION
  2
TABLES
  0
TABLE
  2
LTYPE
 70
     9
  0
LTYPE
  2
CONTINUOUS
 70
    64
  3
実線
 72
    65
 73
     0
 40
0.0
  0
LTYPE
  2
DASHED1
 70
    64
  3
--  --  --  --  --  --  --  --  
 72
    65
 73
     2
 40
2.5
 49
1.25
 49
-1.25
  0
LTYPE
  2
DASHED2
 70
    64
  3
----    ----    ----    ----    
 72
    65
 73
     2
 40
5.0
 49
2.5
 49
-2.5
  0
LTYPE
  2
DASHED3
 70
    64
  3
------  ------  ------  ------  
 72
    65
 73
     2
 40
5.0
 49
3.75
 49
-1.25
  0
LTYPE
  2
CENTER1
 70
    64
  3
----- - ----- - ----- - ----- - 
 72
    65
 73
     4
 40
10.0
 49
6.25
 49
-1.25
 49
1.25
 49
-1.25
  0
LTYPE
  2
CENTER2
 70
    64
  3
----------  --  ----------  --  
 72
    65
 73
     4
 40
20.0
 49
12.5
 49
-2.5
 49
2.5
 49
-2.5
  0
LTYPE
  2
PHANTOM1
 70
    64
  3
--- - - --- - - --- - - --- - - 
 72
    65
 73
     6
 40
10.0
 49
3.25
 49
-1.25
 49
1.25
 49
-1.25
 49
1.25
 49
-1.25
  0
LTYPE
  2
PHANTOM2
 70
    64
  3
--------  -  -  --------  -  -  
 72
    65
 73
     6
 40
20.0
 49
10.0
 49
-2.5
 49
1.25
 49
-2.5
 49
1.25
 49
-2.5
  0
LTYPE
  2
DOT
 70
    64
  3
-   -   -   -   -   -   -   -   
 72
    65
 73
     2
 40
2.5
 49
0.625
 49
-1.875
  0
LTYPE
  2
DUMMY
 70
    64
  3
ダミー
 72
    65
 73
     0
 40
0.0
  0
LTYPE
  2
RAND1
 70
    64
  3
ランダム線1
 72
    65
 73
     4
 40
10.0
 49
1.0
 49
-2.0
 49
3.0
 49
-4.0
  0
LTYPE
  2
RAND2
 70
    64
  3
ランダム線2
 72
    65
 73
     4
 40
14.0
 49
2.0
 49
-3.0
 49
4.0
 49
-5.0
  0
LTYPE
  2
RAND3
 70
    64
  3
ランダム線3
 72
    65
 73
     4
 40
18.0
 49
3.0
 49
-4.0
 49
5.0
 49
-6.0
  0
LTYPE
  2
RAND4
 70
    64
  3
ランダム線4
 72
    65
 73
     4
 40
22.0
 49
4.0
 49
-5.0
 49
6.0
 49
-7.0
  0
LTYPE
  2
RAND5
 70
    64
  3
ランダム線5
 72
    65
 73
     4
 40
26.0
 49
5.0
 49
-6.0
 49
7.0
 49
-8.0
  0
LTYPE
  2
LONG1
 70
    64
  3
----------  --  ----------  --  
 72
    65
 73
     4
 40
40.0
 49
32.5
 49
-2.5
 49
2.5
 49
-2.5
  0
LTYPE
  2
LONG2
 70
    64
  3
--------  -  -  --------  -  -  
 72
    65
 73
     6
 40
40.0
 49
30.0
 49
-2.5
 49
1.25
 49
-2.5
 49
1.25
 49
-2.5
  0
LTYPE
  2
LONG3
 70
    64
  3
+++++++++++++++..+++++++++++++++
 72
    65
 73
     2
 40
40.0
 49
37.5
 49
-2.5
  0
LTYPE
  2
LONG4
 70
    64
  3
+++++++++++++++..+++++++++++++++
 72
    65
 73
     2
 40
80.0
 49
75.0
 49
-5.0
  0
LTYPE
  2
LONG5
 70
    64
  3
----------  --  ----------  --  
 72
    65
 73
     4
 40
60.0
 49
37.5
 49
-7.5
 49
7.5
 49
-7.5
  0
LTYPE
  2
dashed
 70
   64
  3
-------   -------------   ------
 72
   65
 73
    2
 40
7.5
 49
6
 49
-1.5
  0
LTYPE
  2
dashed_spaced
 70
   64
  3
----        --------        ----
 72
   65
 73
    2
 40
12
 49
6
 49
-6
  0
LTYPE
  2
long_dashed_dotted
 70
   64
  3
------------- --- --------------
 72
   65
 73
    4
 40
15.25
 49
12
 49
-1.5
 49
0.25
 49
-1.5
  0
LTYPE
  2
long_dashed_double-dotted
 70
   64
  3
----------- --- --- ------------
 72
   65
 73
    6
 40
17
 49
12
 49
-1.5
 49
0.25
 49
-1.5
 49
0.25
 49
-1.5
  0
LTYPE
  2
long_dashed_triplicate-dotted
 70
   64
  3
--------- --- --- --- ----------
 72
   65
 73
    8
 40
18.75
 49
12
 49
-1.5
 49
0.25
 49
-1.5
 49
0.25
 49
-1.5
 49
0.25
 49
-1.5
  0
LTYPE
  2
dotted
 70
   64
  3
   -       -       -       -    
 72
   65
 73
    2
 40
1.75
 49
0.25
 49
-1.5
  0
LTYPE
  2
chain
 70
   64
  3
-------------- -- --------------
 72
   65
 73
    4
 40
18.5
 49
12
 49
-1.5
 49
3.5
 49
-1.5
  0
LTYPE
  2
chain_double_dash
 70
   64
  3
------------ -- -- -------------
 72
   65
 73
    6
 40
23.5
 49
12
 49
-1.5
 49
3.5
 49
-1.5
 49
3.5
 49
-1.5
  0
LTYPE
  2
dashed_dotted
 70
   64
  3
-----------     -     ----------
 72
   65
 73
    4
 40
9.25
 49
6
 49
-1.5
 49
0.25
 49
-1.5
  0
LTYPE
  2
double-dashed_dotted
 70
   64
  3
------   -----------   -   -----
 72
   65
 73
    6
 40
16.75
 49
6
 49
-1.5
 49
6
 49
-1.5
 49
0.25
 49
-1.5
  0
LTYPE
  2
dashed_double-dotted
 70
   64
  3
---------    -    -    ---------
 72
   65
 73
    6
 40
11
 49
6
 49
-1.5
 49
0.25
 49
-1.5
 49
0.25
 49
-1.5
  0
LTYPE
  2
double-dashed_double-dotted
 70
   64
  3
-----   ---------   -   -   ----
 72
   65
 73
    8
 40
18.5
 49
6
 49
-1.5
 49
6
 49
-1.5
 49
0.25
 49
-1.5
 49
0.25
 49
-1.5
  0
LTYPE
  2
dashed_triplicate-dotted
 70
   64
  3
-------    -    -    -    ------
 72
   65
 73
    8
 40
12.75
 49
6
 49
-1.5
 49
0.25
 49
-1.5
 49
0.25
 49
-1.5
 49
0.25
 49
-1.5
  0
LTYPE
  2
double-dashed_triplicate-dotted
 70
   64
  3
-----  ---------  -  -  -  -----
 72
   65
 73
   10
 40
20.25
 49
6
 49
-1.5
 49
6
 49
-1.5
 49
0.25
 49
-1.5
 49
0.25
 49
-1.5
 49
0.25
 49
-1.5
  0
LTYPE
  2
undefined
 70
   64
  3
--------------------------------
 72
   65
 73
    0
 40
0
  0
LTYPE
  2
DASH
 70
   64
  3
-------   -------------   ------
 72
   65
 73
    2
 40
7500
 49
6000
 49
-1500
  0
LTYPE
  2
DASHDOT
 70
   64
  3
----------   ------   ----------
 72
   65
 73
    4
 40
18500
 49
12000
 49
-1500
 49
3500
 49
-1500
  0
LTYPE
  2
DASHDOTDOT
 70
   64
  3
--------  -----  -----  --------
 72
   65
 73
    6
 40
23500
 49
12000
 49
-1500
 49
3500
 49
-1500
 49
3500
 49
-1500
  0
LTYPE
  2
DOT_20
 70
   64
  3
-              --              -
 72
   65
 73
    2
 40
1750
 49
250
 49
-1500
  0
LTYPE
  2
DASHED1_21
 70
   64
  3
----        --------        ----
 72
   65
 73
    2
 40
5000
 49
2500
 49
-2500
  0
LTYPE
  2
DASHED2_22
 70
   64
  3
----        --------        ----
 72
   65
 73
    2
 40
2500
 49
1250
 49
-1250
  0
LTYPE
  2
CENTER1_23
 70
   64
  3
----------    ----    ----------
 72
   65
 73
    4
 40
10000
 49
6250
 49
-1250
 49
1250
 49
-1250
  0
LTYPE
  2
CENTER2_24
 70
   64
  3
------    ----    ----    ------
 72
   65
 73
    6
 40
9500
 49
3250
 49
-1250
 49
1250
 49
-1250
 49
1250
 49
-1250
  0
LTYPE
  2
_
 70
   64
  3
                                
 72
   65
 73
    0
 40
0
  0
LTYPE
  2
__26
 70
   64
  3
                                
 72
   65
 73
    0
 40
0
  0
LTYPE
  2
__27
 70
   64
  3
                                
 72
   65
 73
    0
 40
0
  0
LTYPE
  2
__28
 70
   64
  3
                                
 72
   65
 73
    0
 40
0
  0
LTYPE
  2
__29
 70
   64
  3
                                
 72
   65
 73
    0
 40
0
  0
LTYPE
  2
__30
 70
   64
  3
                                
 72
   65
 73
    0
 40
0
  0
LTYPE
  2
__31
 70
   64
  3
                                
 72
   65
 73
    0
 40
0
  0
LTYPE
  2
__32
 70
   64
  3
                                
 72
   65
 73
    0
 40
0
  0
ENDTAB
  0
TABLE
  2
STYLE
  5
3
100
AcDbSymbolTable
 70
     1
  0
STYLE
  5
10
100
AcDbSymbolTableRecord
100
AcDbTextStyleTableRecord
  2
STANDARD
 70
     0
 40
0.0
 41
1.0
 50
0.0
 71
     0
 42
0.2
  3
txt
  4
bigfont.shx
  0
STYLE
  5
26
100
AcDbSymbolTableRecord
100
AcDbTextStyleTableRecord
  2
TATEGAKI
 70
    68
 40
0.0
 41
1.0
 50
0.0
 71
     0
 42
1.0
  3
txt
  4
bigfont.shx
  0
ENDTAB
  0
TABLE
  2
LAYER
 70
    4
  0
LAYER
  2
_0-0_SYSLAYER
 70
   64
 62
    7
  6
CONTINUOUS
  0
LAYER
  2
_0-5_CAR_HATA
 70
   64
 62
    7
  6
CONTINUOUS
  0
LAYER
  2
_0-7_HYOU
 70
   64
 62
    7
  6
CONTINUOUS
  0
LAYER
  2
ADD_LINE
 70
   64
 62
    7
  6
CONTINUOUS
  0
ENDTAB
  0
ENDSEC
  0
SECTION
  2
BLOCKS
  0
BLOCK
  2
-000-60
 70
   64
 10
0
 20
0
 30
0
  0
LINE
  8
_0-5_CAR_HATA
  6
CONTINUOUS
 62
    7
 10
-11666.131636960501
 20
-3245.0652026039065
 11
-16911.131636960512
 21
-3245.0652026039065
  0
LINE
  8
_0-5_CAR_HATA
  6
CONTINUOUS
 62
    7
 10
-11666.131636960501
 20
-18465.065202603855
 11
-16911.131636960512
 21
-18465.065202603855
  0
LINE
  8
_0-5_CAR_HATA
  6
CONTINUOUS
 62
    7
 10
-11666.131636960501
 20
-3245.0652026039065
 11
-15911.131636960499
 21
-3245.0652026039065
  0
LINE
  8
_0-5_CAR_HATA
  6
CONTINUOUS
 62
    7
 10
-11666.131636960501
 20
-4635.0652026039061
 11
-15911.131636960499
 21
-4635.0652026039061
  0
LINE
  8
_0-5_CAR_HATA
  6
CONTINUOUS
 62
    7
 10
-11666.131636960501
 20
-4635.0652026039061
 11
-15911.131636960499
 21
-4635.0652026039061
  0
LINE
  8
_0-5_CAR_HATA
  6
CONTINUOUS
 62
    7
 10
-11666.131636960501
 20
-7145.065202603907
 11
-15911.131636960499
 21
-7145.065202603907
  0
LINE
  8
_0-5_CAR_HATA
  6
CONTINUOUS
 62
    7
 10
-11666.131636960501
 20
-7145.065202603907
 11
-15911.131636960499
 21
-7145.065202603907
  0
LINE
  8
_0-5_CAR_HATA
  6
CONTINUOUS
 62
    7
 10
-11666.131636960501
 20
-8345.0652026039061
 11
-15911.131636960499
 21
-8345.0652026039061
  0
LINE
  8
_0-5_CAR_HATA
  6
CONTINUOUS
 62
    7
 10
-11666.131636960501
 20
-6475.0652026039061
 11
-14911.131636960499
 21
-6475.0652026039061
  0
LINE
  8
_0-5_CAR_HATA
  6
CONTINUOUS
 62
    7
 10
-11666.131636960501
 20
-7145.065202603907
 11
-14911.131636960499
 21
-7145.065202603907
  0
LINE
  8
_0-5_CAR_HATA
  6
CONTINUOUS
 62
    7
 10
-11666.131636960501
 20
-14915.065202603855
 11
-13911.131636960499
 21
-14915.065202603855
  0
LINE
  8
_0-5_CAR_HATA
  6
CONTINUOUS
 62
    7
 10
-11666.131636960501
 20
-18465.065202603855
 11
-13911.131636960499
 21
-18465.065202603855
  0
LINE
  8
_0-5_CAR_HATA
  6
CONTINUOUS
 62
    7
 10
-11666.131636960501
 20
-6475.0652026039061
 11
-13911.131636960499
 21
-6475.0652026039061
  0
LINE
  8
_0-5_CAR_HATA
  6
CONTINUOUS
 62
    7
 10
-11666.131636960501
 20
-14915.065202603855
 11
-13911.131636960499
 21
-14915.065202603855
  0
LINE
  8
_0-5_CAR_HATA
  6
CONTINUOUS
 62
    7
 10
-11666.131636960501
 20
-5475.0652026039061
 11
-13911.131636960499
 21
-5475.0652026039061
  0
LINE
  8
_0-5_CAR_HATA
  6
CONTINUOUS
 62
    7
 10
-11666.131636960501
 20
-6475.0652026039061
 11
-13911.131636960499
 21
-6475.0652026039061
  0
LINE
  8
_0-5_CAR_HATA
  6
CONTINUOUS
 62
    7
 10
-12911.131636960499
 20
-18465.065202603855
 11
-12911.131636960499
 21
-19465.065202603855
  0
LINE
  8
_0-5_CAR_HATA
  6
CONTINUOUS
 62
    7
 10
-10421.131636960501
 20
-18465.065202603855
 11
-10421.131636960501
 21
-19465.065202603855
  0
LINE
  8
_0-5_CAR_HATA
  6
CONTINUOUS
 62
    7
 10
-12611.131636960499
 20
-4635.0652026039061
 11
-3968.2212475141009
 21
-7145.065202603907
  0
LINE
  8
_0-5_CAR_HATA
  6
CONTINUOUS
 62
    7
 10
-12611.131636960499
 20
-4635.0652026039061
 11
-12162.5956562889
 21
-4524.8435741626054
  0
LINE
  8
_0-5_CAR_HATA
  6
CONTINUOUS
 62
    7
 10
-12611.131636960499
 20
-4635.0652026039061
 11
-12291.408916347998
 21
-4968.3979421562071
  0
ARC
  8
_0-5_CAR_HATA
  6
CONTINUOUS
 62
    7
 10
-3968.2212475141009
 20
-7145.065202603907
 40
9000
 50
153.80609867674099
 51
168.80609867674099
  0
LINE
  8
_0-5_CAR_HATA
  6
CONTINUOUS
 62
    7
 10
-11792.397298248099
 20
-1316.8651922414067
 11
-7271.6053417483981
 21
-4684.3865206049086
  0
LINE
  8
_0-5_CAR_HATA
  6
CONTINUOUS
 62
    7
 10
-11792.397298248099
 20
-1316.8651922414067
 11
-11333.654790649001
 21
-1370.6113088924071
  0
LINE
  8
_0-5_CAR_HATA
  6
CONTINUOUS
 62
    7
 10
-11792.397298248099
 20
-1316.8651922414067
 11
-11609.571546823099
 21
-1741.0209159434053
  0
LINE
  8
_0-5_CAR_HATA
  6
CONTINUOUS
 62
    7
 10
-7271.6053417483981
 20
-4684.3865206049086
 11
-7454.4310931733971
 21
-4260.2307969029061
  0
LINE
  8
_0-5_CAR_HATA
  6
CONTINUOUS
 62
    7
 10
-7271.6053417483981
 20
-4684.3865206049086
 11
-7730.3478493475013
 21
-4630.6404039539093
  0
LINE
  8
_0-5_CAR_HATA
  6
CONTINUOUS
 62
    7
 10
-13396.317945808201
 20
-122.11059135870563
 11
-11792.397298248099
 21
-1316.8651922414067
  0
LINE
  8
_0-5_CAR_HATA
  6
CONTINUOUS
 62
    7
 10
23397.035101247398
 20
13022.161294838488
 11
20411.765976629402
 21
18192.799092943493
  0
LINE
  8
_0-5_CAR_HATA
  6
CONTINUOUS
 62
    7
 10
23397.035101247398
 20
13022.161294838488
 11
22997.035101247398
 21
13253.101402514392
  0
LINE
  8
_0-5_CAR_HATA
  6
CONTINUOUS
 62
    7
 10
23397.035101247398
 20
13022.161294838488
 11
23397.035101247398
 21
13484.041510190193
  0
LINE
  8
_0-5_CAR_HATA
  6
CONTINUOUS
 62
    7
 10
20411.765976629402
 20
18192.799092943493
 11
20411.765976629402
 21
17730.91887759179
  0
LINE
  8
_0-5_CAR_HATA
  6
CONTINUOUS
 62
    7
 10
20411.765976629402
 20
18192.799092943493
 11
20811.765976629402
 21
17961.85898526759
  0
LINE
  8
_0-3_TRACTOR
  6
CONTINUOUS
 62
    1
 10
-12911.131636960499
 20
-3245.0652026039065
 11
-10421.131636960501
 21
-3245.0652026039065
  0
LINE
  8
_0-3_TRACTOR
  6
CONTINUOUS
 62
    1
 10
-10421.131636960501
 20
-3245.0652026039065
 11
-10421.131636960501
 21
-8345.0652026039061
  0
LINE
  8
_0-3_TRACTOR
  6
CONTINUOUS
 62
    1
 10
-10421.131636960501
 20
-8345.0652026039061
 11
-12911.131636960499
 21
-8345.0652026039061
  0
LINE
  8
_0-3_TRACTOR
  6
CONTINUOUS
 62
    1
 10
-12911.131636960499
 20
-8345.0652026039061
 11
-12911.131636960499
 21
-3245.0652026039065
  0
LINE
  8
_0-4_TRAILER
  6
CONTINUOUS
 62
    1
 10
-12911.131636960499
 20
-5475.0652026039061
 11
-10421.131636960501
 21
-5475.0652026039061
  0
LINE
  8
_0-4_TRAILER
  6
CONTINUOUS
 62
    1
 10
-10421.131636960501
 20
-5475.0652026039061
 11
-10421.131636960501
 21
-18465.065202603855
  0
LINE
  8
_0-4_TRAILER
  6
CONTINUOUS
 62
    1
 10
-10421.131636960501
 20
-18465.065202603855
 11
-12911.131636960499
 21
-18465.065202603855
  0
LINE
  8
_0-4_TRAILER
  6
CONTINUOUS
 62
    1
 10
-12911.131636960499
 20
-18465.065202603855
 11
-12911.131636960499
 21
-5475.0652026039061
  0
LINE
  8
_0-3_TRACTOR
  6
CONTINUOUS
 62
    1
 10
-11037.929589856401
 20
-421.60848839180858
 11
-8698.0949640995022
 21
-1273.238645272708
  0
LINE
  8
_0-3_TRACTOR
  6
CONTINUOUS
 62
    1
 10
-8698.0949640995022
 20
-1273.238645272708
 11
-10442.397695060401
 21
-6065.6710112808069
  0
LINE
  8
_0-3_TRACTOR
  6
CONTINUOUS
 62
    1
 10
-10442.397695060401
 20
-6065.6710112808069
 11
-12782.2323208173
 21
-5214.0408543999074
  0
LINE
  8
_0-3_TRACTOR
  6
CONTINUOUS
 62
    1
 10
-12782.2323208173
 20
-5214.0408543999074
 11
-11037.929589856401
 21
-421.60848839180858
  0
LINE
  8
_0-4_TRAILER
  6
CONTINUOUS
 62
    1
 10
-12141.3940689253
 20
-2794.3906620641064
 11
-9658.0411344164986
 21
-2976.209810304008
  0
LINE
  8
_0-4_TRAILER
  6
CONTINUOUS
 62
    1
 10
-9658.0411344164986
 20
-2976.209810304008
 11
-10606.567534270598
 21
-15931.532950572648
  0
LINE
  8
_0-4_TRAILER
  6
CONTINUOUS
 62
    1
 10
-10606.567534270598
 20
-15931.532950572648
 11
-13089.920468779301
 21
-15749.713802332726
  0
LINE
  8
_0-4_TRAILER
  6
CONTINUOUS
 62
    1
 10
-13089.920468779301
 20
-15749.713802332726
 11
-12141.3940689253
 21
-2794.3906620641064
  0
LINE
  8
_0-3_TRACTOR
  6
CONTINUOUS
 62
    1
 10
-7547.0545341917014
 20
1946.6281434233931
 11
-5779.5651592507011
 21
192.75206186269111
  0
LINE
  8
_0-3_TRACTOR
  6
CONTINUOUS
 62
    1
 10
-5779.5651592507011
 20
192.75206186269111
 11
-9371.8414708809996
 21
-3427.4068988598087
  0
LINE
  8
_0-3_TRACTOR
  6
CONTINUOUS
 62
    1
 10
-9371.8414708809996
 20
-3427.4068988598087
 11
-11139.330845822
 21
-1673.5308172991065
  0
LINE
  8
_0-3_TRACTOR
  6
CONTINUOUS
 62
    1
 10
-11139.330845822
 20
-1673.5308172991065
 11
-7547.0545341917014
 21
1946.6281434233931
  0
LINE
  8
_0-4_TRAILER
  6
CONTINUOUS
 62
    1
 10
-9882.4161723540983
 20
64.902879317094531
 11
-7477.1411341987996
 21
-579.10953580140654
  0
LINE
  8
_0-4_TRAILER
  6
CONTINUOUS
 62
    1
 10
-7477.1411341987996
 20
-579.10953580140654
 11
-10836.868552829001
 21
-13127.110638467269
  0
LINE
  8
_0-4_TRAILER
  6
CONTINUOUS
 62
    1
 10
-10836.868552829001
 20
-13127.110638467269
 11
-13242.143590984298
 21
-12483.098223348807
  0
LINE
  8
_0-4_TRAILER
  6
CONTINUOUS
 62
    1
 10
-13242.143590984298
 20
-12483.098223348807
 11
-9882.4161723540983
 21
64.902879317094531
  0
LINE
  8
_0-3_TRACTOR
  6
CONTINUOUS
 62
    1
 10
-4118.5494455161997
 20
3656.0239541857909
 11
-2736.5238606302973
 21
1584.7670211326947
  0
LINE
  8
_0-3_TRACTOR
  6
CONTINUOUS
 62
    1
 10
-2736.5238606302973
 20
1584.7670211326947
 11
-6978.8573379681002
 21
-1245.8877912843056
  0
LINE
  8
_0-3_TRACTOR
  6
CONTINUOUS
 62
    1
 10
-6978.8573379681002
 20
-1245.8877912843056
 11
-8360.8829228539998
 21
825.36914176889309
  0
LINE
  8
_0-3_TRACTOR
  6
CONTINUOUS
 62
    1
 10
-8360.8829228539998
 20
825.36914176889309
 11
-4118.5494455161997
 21
3656.0239541857909
  0
LINE
  8
_0-4_TRAILER
  6
CONTINUOUS
 62
    1
 10
-6750.9209442144993
 20
2292.1609093749939
 11
-4547.0025735031977
 21
1133.349529019491
  0
LINE
  8
_0-4_TRAILER
  6
CONTINUOUS
 62
    1
 10
-4547.0025735031977
 20
1133.349529019491
 11
-10592.367967406099
 21
-10364.200525413908
  0
LINE
  8
_0-4_TRAILER
  6
CONTINUOUS
 62
    1
 10
-10592.367967406099
 20
-10364.200525413908
 11
-12796.286338117401
 21
-9205.3891450584069
  0
LINE
  8
_0-4_TRAILER
  6
CONTINUOUS
 62
    1
 10
-12796.286338117401
 20
-9205.3891450584069
 11
-6750.9209442144993
 21
2292.1609093749939
  0
LINE
  8
_0-3_TRACTOR
  6
CONTINUOUS
 62
    1
 10
-971.85640457360023
 20
5396.9091120605926
 11
306.89492046209989
 21
3260.3476107881947
  0
LINE
  8
_0-3_TRACTOR
  6
CONTINUOUS
 62
    1
 10
306.89492046209989
 20
3260.3476107881947
 11
-4069.1949014211013
 21
641.21839083539419
  0
LINE
  8
_0-3_TRACTOR
  6
CONTINUOUS
 62
    1
 10
-4069.1949014211013
 20
641.21839083539419
 11
-5347.9462264567974
 21
2777.779892107792
  0
LINE
  8
_0-3_TRACTOR
  6
CONTINUOUS
 62
    1
 10
-5347.9462264567974
 20
2777.779892107792
 11
-971.85640457360023
 21
5396.9091120605926
  0
LINE
  8
_0-4_TRAILER
  6
CONTINUOUS
 62
    1
 10
-3469.1565637703993
 20
4224.4168232910924
 11
-1507.2658615700989
 21
2691.0920460112939
  0
LINE
  8
_0-4_TRAILER
  6
CONTINUOUS
 62
    1
 10
-1507.2658615700989
 20
2691.0920460112939
 11
-9506.4180129208999
 21
-7543.8317377566082
  0
LINE
  8
_0-4_TRAILER
  6
CONTINUOUS
 62
    1
 10
-9506.4180129208999
 20
-7543.8317377566082
 11
-11468.308715121198
 21
-6010.506960476906
  0
LINE
  8
_0-4_TRAILER
  6
CONTINUOUS
 62
    1
 10
-11468.308715121198
 20
-6010.506960476906
 11
-3469.1565637703993
 21
4224.4168232910924
  0
LINE
  8
_0-3_TRACTOR
  6
CONTINUOUS
 62
    1
 10
2107.9289052304025
 20
7156.0770079073918
 11
3361.1446203241007
 21
5004.4380113649931
  0
LINE
  8
_0-3_TRACTOR
  6
CONTINUOUS
 62
    1
 10
3361.1446203241007
 20
5004.4380113649931
 11
-1045.826818377298
 21
2437.6106431007938
  0
LINE
  8
_0-3_TRACTOR
  6
CONTINUOUS
 62
    1
 10
-1045.826818377298
 20
2437.6106431007938
 11
-2299.0425334710003
 21
4589.2496396431925
  0
LINE
  8
_0-3_TRACTOR
  6
CONTINUOUS
 62
    1
 10
-2299.0425334710003
 20
4589.2496396431925
 11
2107.9289052304025
 21
7156.0770079073918
  0
LINE
  8
_0-4_TRAILER
  6
CONTINUOUS
 62
    1
 10
-220.92290776369765
 20
6042.9971520435938
 11
1529.9178652725
 21
4272.501010428492
  0
LINE
  8
_0-4_TRAILER
  6
CONTINUOUS
 62
    1
 10
1529.9178652725
 20
4272.501010428492
 11
-7706.5258614663999
 21
-4861.4032633629067
  0
LINE
  8
_0-4_TRAILER
  6
CONTINUOUS
 62
    1
 10
-7706.5258614663999
 20
-4861.4032633629067
 11
-9457.3666345026995
 21
-3090.9071217479072
  0
LINE
  8
_0-4_TRAILER
  6
CONTINUOUS
 62
    1
 10
-9457.3666345026995
 20
-3090.9071217479072
 11
-220.92290776369765
 21
6042.9971520435938
  0
LINE
  8
_0-3_TRACTOR
  6
CONTINUOUS
 62
    1
 10
5171.6562962096004
 20
8920.2938478658943
 11
6418.6508291080982
 21
6765.0433670815946
  0
LINE
  8
_0-3_TRACTOR
  6
CONTINUOUS
 62
    1
 10
6418.6508291080982
 20
6765.0433670815946
 11
2004.2823744895011
 21
4210.9581792171921
  0
LINE
  8
_0-3_TRACTOR
  6
CONTINUOUS
 62
    1
 10
2004.2823744895011
 20
4210.9581792171921
 11
757.28784159099973
 21
6366.2086600014918
  0
LINE
  8
_0-3_TRACTOR
  6
CONTINUOUS
 62
    1
 10
757.28784159099973
 20
6366.2086600014918
 11
5171.6562962096004
 21
8920.2938478658943
  0
LINE
  8
_0-4_TRAILER
  6
CONTINUOUS
 62
    1
 10
2973.0807846838998
 20
7821.7444013850954
 11
4564.1401909880015
 21
5906.3776047606925
  0
LINE
  8
_0-4_TRAILER
  6
CONTINUOUS
 62
    1
 10
4564.1401909880015
 20
5906.3776047606925
 11
-5428.0745432092981
 21
-2393.9684546329081
  0
LINE
  8
_0-4_TRAILER
  6
CONTINUOUS
 62
    1
 10
-5428.0745432092981
 20
-2393.9684546329081
 11
-7019.1339495133998
 21
-478.60165800850541
  0
LINE
  8
_0-4_TRAILER
  6
CONTINUOUS
 62
    1
 10
-7019.1339495133998
 20
-478.60165800850541
 11
2973.0807846838998
 21
7821.7444013850954
  0
LINE
  8
_0-3_TRACTOR
  6
CONTINUOUS
 62
    1
 10
8231.4998754564022
 20
10685.771192304794
 11
9476.9837815298033
 21
8529.6473925863938
  0
LINE
  8
_0-3_TRACTOR
  6
CONTINUOUS
 62
    1
 10
9476.9837815298033
 20
8529.6473925863938
 11
5060.8266013836019
 21
5978.6562596649928
  0
LINE
  8
_0-3_TRACTOR
  6
CONTINUOUS
 62
    1
 10
5060.8266013836019
 20
5978.6562596649928
 11
3815.3426953102007
 21
8134.7800593833927
  0
LINE
  8
_0-3_TRACTOR
  6
CONTINUOUS
 62
    1
 10
3815.3426953102007
 20
8134.7800593833927
 11
8231.4998754564022
 21
10685.771192304794
  0
LINE
  8
_0-4_TRAILER
  6
CONTINUOUS
 62
    1
 10
6123.2209803194
 20
9587.6018652994935
 11
7601.0960056256026
 21
7583.6094976552931
  0
LINE
  8
_0-4_TRAILER
  6
CONTINUOUS
 62
    1
 10
7601.0960056256026
 20
7583.6094976552931
 11
-2853.4665870242989
 21
-126.26864641190707
  0
LINE
  8
_0-4_TRAILER
  6
CONTINUOUS
 62
    1
 10
-2853.4665870242989
 20
-126.26864641190707
 11
-4331.3416123304978
 21
1877.7237212322941
  0
LINE
  8
_0-4_TRAILER
  6
CONTINUOUS
 62
    1
 10
-4331.3416123304978
 20
1877.7237212322941
 11
6123.2209803194
 21
9587.6018652994935
  0
LINE
  8
_0-3_TRACTOR
  6
CONTINUOUS
 62
    1
 10
11290.4020523523
 20
12451.556394500094
 11
12535.519437811097
 21
10295.22091586309
  0
LINE
  8
_0-3_TRACTOR
  6
CONTINUOUS
 62
    1
 10
12535.519437811097
 20
10295.22091586309
 11
8118.9286984341979
 21
7744.9804878150944
  0
LINE
  8
_0-3_TRACTOR
  6
CONTINUOUS
 62
    1
 10
8118.9286984341979
 20
7744.9804878150944
 11
6873.811312975502
 21
9901.3159664519917
  0
LINE
  8
_0-3_TRACTOR
  6
CONTINUOUS
 62
    1
 10
6873.811312975502
 20
9901.3159664519917
 11
11290.4020523523
 21
12451.556394500094
  0
LINE
  8
_0-4_TRAILER
  6
CONTINUOUS
 62
    1
 10
9242.5277629436969
 20
11350.078612506291
 11
10642.821186745599
 21
9291.1278293991927
  0
LINE
  8
_0-4_TRAILER
  6
CONTINUOUS
 62
    1
 10
10642.821186745599
 20
9291.1278293991927
 11
-98.452175728698421
 21
1985.9826184809936
  0
LINE
  8
_0-4_TRAILER
  6
CONTINUOUS
 62
    1
 10
-98.452175728698421
 20
1985.9826184809936
 11
-1498.7455995305993
 21
4044.9334015880922
  0
LINE
  8
_0-4_TRAILER
  6
CONTINUOUS
 62
    1
 10
-1498.7455995305993
 20
4044.9334015880922
 11
9242.5277629436969
 21
11350.078612506291
  0
LINE
  8
_0-3_TRACTOR
  6
CONTINUOUS
 62
    1
 10
14349.075916410302
 20
14217.416396392295
 11
15594.104390600603
 21
12061.029580801191
  0
LINE
  8
_0-3_TRACTOR
  6
CONTINUOUS
 62
    1
 10
15594.104390600603
 20
12061.029580801191
 11
11177.408503245302
 21
9510.9712601703941
  0
LINE
  8
_0-3_TRACTOR
  6
CONTINUOUS
 62
    1
 10
11177.408503245302
 20
9510.9712601703941
 11
9932.3800290549989
 21
11667.358075761595
  0
LINE
  8
_0-3_TRACTOR
  6
CONTINUOUS
 62
    1
 10
9932.3800290549989
 20
11667.358075761595
 11
14349.075916410302
 21
14217.416396392295
  0
LINE
  8
_0-4_TRAILER
  6
CONTINUOUS
 62
    1
 10
12341.120786586696
 20
13112.333499036995
 11
13689.141916838404
 21
11018.786501142091
  0
LINE
  8
_0-4_TRAILER
  6
CONTINUOUS
 62
    1
 10
13689.141916838404
 20
11018.786501142091
 11
2767.3846868562991
 21
3986.3389180217923
  0
LINE
  8
_0-4_TRAILER
  6
CONTINUOUS
 62
    1
 10
2767.3846868562991
 20
3986.3389180217923
 11
1419.3635566046012
 21
6079.8859159166941
  0
LINE
  8
_0-4_TRAILER
  6
CONTINUOUS
 62
    1
 10
1419.3635566046012
 20
6079.8859159166941
 11
12341.120786586696
 21
13112.333499036995
  0
LINE
  8
_0-3_TRACTOR
  6
CONTINUOUS
 62
    1
 10
17407.694401664397
 20
15983.294549498092
 11
18652.701308586402
 21
13826.895281802896
  0
LINE
  8
_0-3_TRACTOR
  6
CONTINUOUS
 62
    1
 10
18652.701308586402
 20
13826.895281802896
 11
14235.979916921402
 21
11276.881135095193
  0
LINE
  8
_0-3_TRACTOR
  6
CONTINUOUS
 62
    1
 10
14235.979916921402
 20
11276.881135095193
 11
12990.973009999399
 21
13433.280402790495
  0
LINE
  8
_0-3_TRACTOR
  6
CONTINUOUS
 62
    1
 10
12990.973009999399
 20
13433.280402790495
 11
17407.694401664397
 21
15983.294549498092
  0
LINE
  8
_0-4_TRAILER
  6
CONTINUOUS
 62
    1
 10
15426.014675088498
 20
14875.250788459194
 11
16739.147803108302
 21
12759.646527710694
  0
LINE
  8
_0-4_TRAILER
  6
CONTINUOUS
 62
    1
 10
16739.147803108302
 20
12759.646527710694
 11
5702.3207560710989
 21
5909.2050285233927
  0
LINE
  8
_0-4_TRAILER
  6
CONTINUOUS
 62
    1
 10
5702.3207560710989
 20
5909.2050285233927
 11
4389.1876280513006
 21
8024.8092892718932
  0
LINE
  8
_0-4_TRAILER
  6
CONTINUOUS
 62
    1
 10
4389.1876280513006
 20
8024.8092892718932
 11
15426.014675088498
 21
14875.250788459194
  0
LINE
  8
_0-3_TRACTOR
  6
CONTINUOUS
 62
    1
 10
18019.415952912699
 20
16336.470883509488
 11
19264.421155879201
 21
14180.070632028695
  0
LINE
  8
_0-3_TRACTOR
  6
CONTINUOUS
 62
    1
 10
19264.421155879201
 20
14180.070632028695
 11
14847.697749231798
 21
11630.059975350296
  0
LINE
  8
_0-3_TRACTOR
  6
CONTINUOUS
 62
    1
 10
14847.697749231798
 20
11630.059975350296
 11
13602.692546265302
 21
13786.460226831095
  0
LINE
  8
_0-3_TRACTOR
  6
CONTINUOUS
 62
    1
 10
13602.692546265302
 20
13786.460226831095
 11
18019.415952912699
 21
16336.470883509488
  0
LINE
  8
_0-4_TRAILER
  6
CONTINUOUS
 62
    1
 10
16041.7939394718
 20
15227.929072953495
 11
17349.503539022597
 21
13108.968100391092
  0
LINE
  8
_0-4_TRAILER
  6
CONTINUOUS
 62
    1
 10
17349.503539022597
 20
13108.968100391092
 11
6295.164971317301
 21
6286.8204304454921
  0
LINE
  8
_0-4_TRAILER
  6
CONTINUOUS
 62
    1
 10
6295.164971317301
 20
6286.8204304454921
 11
4987.4553717665021
 21
8405.7814030078916
  0
LINE
  8
_0-4_TRAILER
  6
CONTINUOUS
 62
    1
 10
4987.4553717665021
 20
8405.7814030078916
 11
16041.7939394718
 21
15227.929072953495
  0
LINE
  8
_0-2_FUKUIN
  6
CONTINUOUS
 62
    7
 10
-13242.143590984298
 20
-21465.065202603855
 11
-13242.143590984298
 21
-1237.2946552016076
  0
LINE
  8
_0-2_FUKUIN
  6
CONTINUOUS
 62
    7
 10
-7271.6053417483981
 20
-21465.065202603855
 11
-7271.6053417483981
 21
-4684.3865206049086
  0
LINE
  8
_0-2_FUKUIN
  6
CONTINUOUS
 62
    7
 10
-13242.143590984298
 20
-1237.2946552016076
 11
20411.765976629402
 21
18192.799092943493
  0
LINE
  8
_0-2_FUKUIN
  6
CONTINUOUS
 62
    7
 10
-7271.6053417483981
 20
-4684.3865206049086
 11
23397.035101247398
 21
13022.161294838488
  0
CIRCLE
  8
_0-6_SENYUU
  6
CONTINUOUS
 62
    7
 10
-9532.0013199982986
 20
-3000.6258564232089
 40
2818.5882907465998
  0
ENDBLK
  0
ENDSEC
  0
SECTION
  2
ENTITIES
  0
INSERT
  2
-000-60
  8
_0-0_SYSLAYER
 10
17772.518321694501
 20
16601.603108668107
 41
1
 42
1
 50
0
  0
ENDSEC
  0
EOF
