 0
SECTION
 2
HEADER
 9
$ACADVER
 1
AC1009
 9
$EXTMIN
 10
0.0
 20
0.0
 9
$EXTMAX
 10
74250.0
 20
52500.0
 9
$LIMMIN
 10
0.0
 20
0.0
 9
$LIMMAX
 10
74250.0
 20
52500.0
 9
$LTSCALE
 40
0.25
 9
$DIMSCALE
 40
10.0
 0
ENDSEC
 0
SECTION
 2
TABLES
 0
TABLE
 2
LTYPE
 70
9
 0
LTYPE
 2
CONTINUOUS
 70
0
 3
Solid line
 72
65
 73
0
 40
0.0
 0
LTYPE
 2
DASH
 70
0
 3
DASH
 72
65
 73
2
 40
7500.0
 49
6000.0
 49
-1500.0
 0
LTYPE
 2
DASHDOT
 70
0
 3
DASHDOT
 72
65
 73
4
 40
18500.0
 49
12000.0
 49
-1500.0
 49
3500.0
 49
-1500.0
 0
LTYPE
 2
DASHDOTDOT
 70
0
 3
DASHDOTDOT
 72
65
 73
6
 40
23500.0
 49
12000.0
 49
-1500.0
 49
3500.0
 49
-1500.0
 49
3500.0
 49
-1500.0
 0
LTYPE
 2
DOT
 70
0
 3
DOT
 72
65
 73
2
 40
1750.0
 49
250.0
 49
-1500.0
 0
LTYPE
 2
DASHED1
 70
0
 3
DASHED1
 72
65
 73
2
 40
5000.0
 49
2500.0
 49
-2500.0
 0
LTYPE
 2
DASHED2
 70
0
 3
DASHED2
 72
65
 73
2
 40
2500.0
 49
1250.0
 49
-1250.0
 0
LTYPE
 2
CENTER1
 70
0
 3
CENTER1
 72
65
 73
4
 40
10000.0
 49
6250.0
 49
-1250.0
 49
1250.0
 49
-1250.0
 0
LTYPE
 2
CENTER2
 70
0
 3
CENTER2
 72
65
 73
6
 40
9500.0
 49
3250.0
 49
-1250.0
 49
1250.0
 49
-1250.0
 49
1250.0
 49
-1250.0
 0
ENDTAB
 0
TABLE
 2
LAYER
 70
10
 0
LAYER
 2
SYSLAYER
 70
0
 62
7
 6
CONTINUOUS
 0
LAYER
 2
SYSLAYER_RST
 70
0
 62
7
 6
CONTINUOUS
 0
LAYER
 2
FUKUIN
 70
0
 62
7
 6
CONTINUOUS
 0
LAYER
 2
TRACTOR
 70
0
 62
1
 6
CONTINUOUS
 0
LAYER
 2
TRAILER
 70
0
 62
1
 6
CONTINUOUS
 0
LAYER
 2
CAR_HATA
 70
0
 62
7
 6
CONTINUOUS
 0
LAYER
 2
SENYUU
 70
0
 62
7
 6
CONTINUOUS
 0
LAYER
 2
HYOU
 70
0
 62
7
 6
CONTINUOUS
 0
LAYER
 2
TRAILER2
 70
0
 62
1
 6
CONTINUOUS
 0
LAYER
 2
TRAILER3
 70
0
 62
1
 6
CONTINUOUS
 0
ENDTAB
 0
TABLE
 2
STYLE
 70
4
 0
STYLE
 2
MTC_FONT0
 70
0
 40
0.0
 41
1.0
 50
0.0
 71
0
 42
752.5
 3
MONOTXT
 4
EXTFONT
 0
STYLE
 2
MTC_FONT1
 70
0
 40
0.0
 41
1.0
 50
0.0
 71
0
 42
752.5
 3
MONOTXT
 4
EXTFONT
 0
STYLE
 2
MTC_FONT2
 70
0
 40
0.0
 41
0.5
 50
0.0
 71
0
 42
2.14999995194376
 3
MONOTXT
 4
EXTFONT
 0
STYLE
 2
MTC_FONT3
 70
0
 40
0.0
 41
1.0
 50
0.0
 71
0
 42
0.0
 3
MONOTXT
 4
EXTFONT
 0
ENDTAB
 0
TABLE
 2
DIMSTYLE
 70
0
 0
ENDTAB
 0
ENDSEC
 0
SECTION
 2
BLOCKS
 0
BLOCK
 8
0
 2
MTC_ARROW_NONE
 70
0
 10
0.0
 20
0.0
 30
0.0
 3
MTC_ARROW_NONE
 0
ENDBLK
 8
0
 0
ENDSEC
 0
SECTION
 2
ENTITIES
 0
TEXT
 8
HYOU
 62
7
 10
47500.0
 20
24140.0
 30
0
 11
47500.0
 21
25000.0
 31
0
 40
860.0
 1
タイトル         軌跡図
 41
0.5
 50
0.0
 51
0.0
 7
MTC_FONT2
 72
0
 73
3
 0
TEXT
 8
HYOU
 62
7
 10
47500.0
 20
22890.0
 30
0
 11
47500.0
 21
23750.0
 31
0
 40
860.0
 1
車両名           倉庫用軌跡図
 41
0.5
 50
0.0
 51
0.0
 7
MTC_FONT2
 72
0
 73
3
 0
TEXT
 8
HYOU
 62
7
 10
47500.0
 20
21640.0
 30
0
 11
47500.0
 21
22500.0
 31
0
 40
860.0
 1
車種             セミトレーラ
 41
0.5
 50
0.0
 51
0.0
 7
MTC_FONT2
 72
0
 73
3
 0
TEXT
 8
HYOU
 62
7
 10
47500.0
 20
20390.0
 30
0
 11
47500.0
 21
21250.0
 31
0
 40
860.0
 1
全長             15220mm
 41
0.5
 50
0.0
 51
0.0
 7
MTC_FONT2
 72
0
 73
3
 0
TEXT
 8
HYOU
 62
7
 10
47500.0
 20
19140.0
 30
0
 11
47500.0
 21
20000.0
 31
0
 40
860.0
 1
車幅             2490mm
 41
0.5
 50
0.0
 51
0.0
 7
MTC_FONT2
 72
0
 73
3
 0
TEXT
 8
HYOU
 62
7
 10
47500.0
 20
17890.0
 30
0
 11
47500.0
 21
18750.0
 31
0
 40
860.0
 1
最小回転半径     9000mm
 41
0.5
 50
0.0
 51
0.0
 7
MTC_FONT2
 72
0
 73
3
 0
TEXT
 8
HYOU
 62
7
 10
47500.0
 20
16640.0
 30
0
 11
47500.0
 21
17500.0
 31
0
 40
860.0
 1
連結最小回転半径 10030mm  JASO Z 107-04
 41
0.5
 50
0.0
 51
0.0
 7
MTC_FONT2
 72
0
 73
3
 0
TEXT
 8
HYOU
 62
7
 10
47500.0
 20
15390.0
 30
0
 11
47500.0
 21
16250.0
 31
0
 40
860.0
 1
所要道路幅       5500 (5499)mm
 41
0.5
 50
0.0
 51
0.0
 7
MTC_FONT2
 72
0
 73
3
 0
TEXT
 8
HYOU
 62
7
 10
47500.0
 20
14140.0
 30
0
 11
47500.0
 21
15000.0
 31
0
 40
860.0
 1
所要占有幅       5300 (5297)mm
 41
0.5
 50
0.0
 51
0.0
 7
MTC_FONT2
 72
0
 73
3
 0
TEXT
 8
HYOU
 62
7
 10
47500.0
 20
12890.0
 30
0
 11
47500.0
 21
13750.0
 31
0
 40
860.0
 1
旋回方向         右旋回
 41
0.5
 50
0.0
 51
0.0
 7
MTC_FONT2
 72
0
 73
3
 0
TEXT
 8
HYOU
 62
7
 10
47500.0
 20
11640.0
 30
0
 11
47500.0
 21
12500.0
 31
0
 40
860.0
 1
旋回角度         50.000度
 41
0.5
 50
0.0
 51
0.0
 7
MTC_FONT2
 72
0
 73
3
 0
TEXT
 8
HYOU
 62
7
 10
47500.0
 20
10390.0
 30
0
 11
47500.0
 21
11250.0
 31
0
 40
860.0
 1
スケール         1/250
 41
0.5
 50
0.0
 51
0.0
 7
MTC_FONT2
 72
0
 73
3
 0
TEXT
 8
HYOU
 62
7
 10
47500.0
 20
9140.0
 30
0
 11
47500.0
 21
10000.0
 31
0
 40
860.0
 1
作図方法         JASO Z 006 プロッタ法
 41
0.5
 50
0.0
 51
0.0
 7
MTC_FONT2
 72
0
 73
3
 0
TEXT
 8
HYOU
 62
7
 10
47500.0
 20
7890.0
 30
0
 11
47500.0
 21
8750.0
 31
0
 40
860.0
 1
  刻み角         5度
 41
0.5
 50
0.0
 51
0.0
 7
MTC_FONT2
 72
0
 73
3
 0
TEXT
 8
HYOU
 62
7
 10
47500.0
 20
6640.0
 30
0
 11
47500.0
 21
7500.0
 31
0
 40
860.0
 1
  表示間隔       5
 41
0.5
 50
0.0
 51
0.0
 7
MTC_FONT2
 72
0
 73
3
 0
LINE
 8
CAR_HATA
 6
CONTINUOUS
 62
7
 10
24316.9291994849
 20
22832.237275817
 30
0.0
 11
19071.9291994849
 21
22832.237275817
 31
0.0
 0
LINE
 8
CAR_HATA
 6
CONTINUOUS
 62
7
 10
24316.9291994849
 20
7612.23727581702
 30
0.0
 11
19071.9291994849
 21
7612.23727581702
 31
0.0
 0
LINE
 8
CAR_HATA
 6
CONTINUOUS
 62
7
 10
19071.9291994849
 20
7612.23727581702
 30
0.0
 11
19071.9291994849
 21
22832.237275817
 31
0.0
 0
LINE
 8
CAR_HATA
 6
CONTINUOUS
 62
7
 10
19071.9291994849
 20
7612.23727581702
 30
0.0
 11
18840.9890918091
 21
8012.23727581702
 31
0.0
 0
LINE
 8
CAR_HATA
 6
CONTINUOUS
 62
7
 10
19071.9291994849
 20
7612.23727581702
 30
0.0
 11
19302.8693071608
 21
8012.23727581702
 31
0.0
 0
LINE
 8
CAR_HATA
 6
CONTINUOUS
 62
7
 10
19071.9291994849
 20
22832.237275817
 30
0.0
 11
18840.9890918091
 21
22432.237275817
 31
0.0
 0
LINE
 8
CAR_HATA
 6
CONTINUOUS
 62
7
 10
19071.9291994849
 20
22832.237275817
 30
0.0
 11
19302.8693071608
 21
22432.237275817
 31
0.0
 0
TEXT
 8
CAR_HATA
 62
7
 10
19001.9291994849
 20
14684.737275817
 30
0
 11
19071.9291994849
 21
15222.237275817
 31
0
 40
430.0
 1
15220
 41
0.5
 50
90.0
 51
0.0
 7
MTC_FONT2
 72
1
 73
1
 0
LINE
 8
CAR_HATA
 6
CONTINUOUS
 62
7
 10
24316.9291994849
 20
22832.237275817
 30
0.0
 11
20071.9291994849
 21
22832.237275817
 31
0.0
 0
LINE
 8
CAR_HATA
 6
CONTINUOUS
 62
7
 10
24316.9291994849
 20
21442.237275817
 30
0.0
 11
20071.9291994849
 21
21442.237275817
 31
0.0
 0
LINE
 8
CAR_HATA
 6
CONTINUOUS
 62
7
 10
20071.9291994849
 20
21442.237275817
 30
0.0
 11
20071.9291994849
 21
22832.237275817
 31
0.0
 0
LINE
 8
CAR_HATA
 6
CONTINUOUS
 62
7
 10
20071.9291994849
 20
21442.237275817
 30
0.0
 11
19840.9890918091
 21
21842.237275817
 31
0.0
 0
LINE
 8
CAR_HATA
 6
CONTINUOUS
 62
7
 10
20071.9291994849
 20
21442.237275817
 30
0.0
 11
20302.8693071608
 21
21842.237275817
 31
0.0
 0
LINE
 8
CAR_HATA
 6
CONTINUOUS
 62
7
 10
20071.9291994849
 20
22832.237275817
 30
0.0
 11
19840.9890918091
 21
22432.237275817
 31
0.0
 0
LINE
 8
CAR_HATA
 6
CONTINUOUS
 62
7
 10
20071.9291994849
 20
22832.237275817
 30
0.0
 11
20302.8693071608
 21
22432.237275817
 31
0.0
 0
TEXT
 8
CAR_HATA
 62
7
 10
20001.9291994849
 20
21707.237275817
 30
0
 11
20071.9291994849
 21
22137.237275817
 31
0
 40
430.0
 1
1390
 41
0.5
 50
90.0
 51
0.0
 7
MTC_FONT2
 72
1
 73
1
 0
LINE
 8
CAR_HATA
 6
CONTINUOUS
 62
7
 10
24316.9291994849
 20
21442.237275817
 30
0.0
 11
20071.9291994849
 21
21442.237275817
 31
0.0
 0
LINE
 8
CAR_HATA
 6
CONTINUOUS
 62
7
 10
24316.9291994849
 20
18932.237275817
 30
0.0
 11
20071.9291994849
 21
18932.237275817
 31
0.0
 0
LINE
 8
CAR_HATA
 6
CONTINUOUS
 62
7
 10
20071.9291994849
 20
18932.237275817
 30
0.0
 11
20071.9291994849
 21
21442.237275817
 31
0.0
 0
LINE
 8
CAR_HATA
 6
CONTINUOUS
 62
7
 10
20071.9291994849
 20
18932.237275817
 30
0.0
 11
19840.9890918091
 21
19332.237275817
 31
0.0
 0
LINE
 8
CAR_HATA
 6
CONTINUOUS
 62
7
 10
20071.9291994849
 20
18932.237275817
 30
0.0
 11
20302.8693071608
 21
19332.237275817
 31
0.0
 0
LINE
 8
CAR_HATA
 6
CONTINUOUS
 62
7
 10
20071.9291994849
 20
21442.237275817
 30
0.0
 11
19840.9890918091
 21
21042.237275817
 31
0.0
 0
LINE
 8
CAR_HATA
 6
CONTINUOUS
 62
7
 10
20071.9291994849
 20
21442.237275817
 30
0.0
 11
20302.8693071608
 21
21042.237275817
 31
0.0
 0
TEXT
 8
CAR_HATA
 62
7
 10
20001.9291994849
 20
19757.237275817
 30
0
 11
20071.9291994849
 21
20187.237275817
 31
0
 40
430.0
 1
2510
 41
0.5
 50
90.0
 51
0.0
 7
MTC_FONT2
 72
1
 73
1
 0
LINE
 8
CAR_HATA
 6
CONTINUOUS
 62
7
 10
24316.9291994849
 20
18932.237275817
 30
0.0
 11
20071.9291994849
 21
18932.237275817
 31
0.0
 0
LINE
 8
CAR_HATA
 6
CONTINUOUS
 62
7
 10
24316.9291994849
 20
17732.237275817
 30
0.0
 11
20071.9291994849
 21
17732.237275817
 31
0.0
 0
LINE
 8
CAR_HATA
 6
CONTINUOUS
 62
7
 10
20071.9291994849
 20
17732.237275817
 30
0.0
 11
20071.9291994849
 21
18932.237275817
 31
0.0
 0
LINE
 8
CAR_HATA
 6
CONTINUOUS
 62
7
 10
20071.9291994849
 20
17732.237275817
 30
0.0
 11
19840.9890918091
 21
18132.237275817
 31
0.0
 0
LINE
 8
CAR_HATA
 6
CONTINUOUS
 62
7
 10
20071.9291994849
 20
17732.237275817
 30
0.0
 11
20302.8693071608
 21
18132.237275817
 31
0.0
 0
LINE
 8
CAR_HATA
 6
CONTINUOUS
 62
7
 10
20071.9291994849
 20
18932.237275817
 30
0.0
 11
19840.9890918091
 21
18532.237275817
 31
0.0
 0
LINE
 8
CAR_HATA
 6
CONTINUOUS
 62
7
 10
20071.9291994849
 20
18932.237275817
 30
0.0
 11
20302.8693071608
 21
18532.237275817
 31
0.0
 0
TEXT
 8
CAR_HATA
 62
7
 10
20001.9291994849
 20
17902.237275817
 30
0
 11
20071.9291994849
 21
18332.237275817
 31
0
 40
430.0
 1
1200
 41
0.5
 50
90.0
 51
0.0
 7
MTC_FONT2
 72
1
 73
1
 0
LINE
 8
CAR_HATA
 6
CONTINUOUS
 62
7
 10
24316.9291994849
 20
19602.237275817
 30
0.0
 11
21071.9291994849
 21
19602.237275817
 31
0.0
 0
LINE
 8
CAR_HATA
 6
CONTINUOUS
 62
7
 10
24316.9291994849
 20
18932.237275817
 30
0.0
 11
21071.9291994849
 21
18932.237275817
 31
0.0
 0
LINE
 8
CAR_HATA
 6
CONTINUOUS
 62
7
 10
21071.9291994849
 20
18932.237275817
 30
0.0
 11
21071.9291994849
 21
19602.237275817
 31
0.0
 0
LINE
 8
CAR_HATA
 6
CONTINUOUS
 62
7
 10
21071.9291994849
 20
19602.237275817
 30
0.0
 11
21071.9291994849
 21
20602.237275817
 31
0.0
 0
LINE
 8
CAR_HATA
 6
CONTINUOUS
 62
7
 10
21071.9291994849
 20
19602.237275817
 30
0.0
 11
20840.9890918091
 21
20002.237275817
 31
0.0
 0
LINE
 8
CAR_HATA
 6
CONTINUOUS
 62
7
 10
21071.9291994849
 20
19602.237275817
 30
0.0
 11
21302.8693071608
 21
20002.237275817
 31
0.0
 0
TEXT
 8
CAR_HATA
 62
7
 10
21001.9291994849
 20
19957.237275817
 30
0
 11
21071.9291994849
 21
20602.237275817
 31
0
 40
430.0
 1
670
 41
0.5
 50
90.0
 51
0.0
 7
MTC_FONT2
 72
2
 73
1
 0
LINE
 8
CAR_HATA
 6
CONTINUOUS
 62
7
 10
21071.9291994849
 20
17932.237275817
 30
0.0
 11
21071.9291994849
 21
18932.237275817
 31
0.0
 0
LINE
 8
CAR_HATA
 6
CONTINUOUS
 62
7
 10
21071.9291994849
 20
18932.237275817
 30
0.0
 11
20840.9890918091
 21
18532.237275817
 31
0.0
 0
LINE
 8
CAR_HATA
 6
CONTINUOUS
 62
7
 10
21071.9291994849
 20
18932.237275817
 30
0.0
 11
21302.8693071608
 21
18532.237275817
 31
0.0
 0
LINE
 8
CAR_HATA
 6
CONTINUOUS
 62
7
 10
24316.9291994849
 20
11162.237275817
 30
0.0
 11
22071.9291994849
 21
11162.237275817
 31
0.0
 0
LINE
 8
CAR_HATA
 6
CONTINUOUS
 62
7
 10
24316.9291994849
 20
7612.23727581702
 30
0.0
 11
22071.9291994849
 21
7612.23727581702
 31
0.0
 0
LINE
 8
CAR_HATA
 6
CONTINUOUS
 62
7
 10
22071.9291994849
 20
7612.23727581702
 30
0.0
 11
22071.9291994849
 21
11162.237275817
 31
0.0
 0
LINE
 8
CAR_HATA
 6
CONTINUOUS
 62
7
 10
22071.9291994849
 20
7612.23727581702
 30
0.0
 11
21840.9890918091
 21
8012.23727581702
 31
0.0
 0
LINE
 8
CAR_HATA
 6
CONTINUOUS
 62
7
 10
22071.9291994849
 20
7612.23727581702
 30
0.0
 11
22302.8693071608
 21
8012.23727581702
 31
0.0
 0
LINE
 8
CAR_HATA
 6
CONTINUOUS
 62
7
 10
22071.9291994849
 20
11162.237275817
 30
0.0
 11
21840.9890918091
 21
10762.237275817
 31
0.0
 0
LINE
 8
CAR_HATA
 6
CONTINUOUS
 62
7
 10
22071.9291994849
 20
11162.237275817
 30
0.0
 11
22302.8693071608
 21
10762.237275817
 31
0.0
 0
TEXT
 8
CAR_HATA
 62
7
 10
22001.9291994849
 20
8957.23727581702
 30
0
 11
22071.9291994849
 21
9387.23727581702
 31
0
 40
430.0
 1
3550
 41
0.5
 50
90.0
 51
0.0
 7
MTC_FONT2
 72
1
 73
1
 0
LINE
 8
CAR_HATA
 6
CONTINUOUS
 62
7
 10
24316.9291994849
 20
19602.237275817
 30
0.0
 11
22071.9291994849
 21
19602.237275817
 31
0.0
 0
LINE
 8
CAR_HATA
 6
CONTINUOUS
 62
7
 10
24316.9291994849
 20
11162.237275817
 30
0.0
 11
22071.9291994849
 21
11162.237275817
 31
0.0
 0
LINE
 8
CAR_HATA
 6
CONTINUOUS
 62
7
 10
22071.9291994849
 20
11162.237275817
 30
0.0
 11
22071.9291994849
 21
19602.237275817
 31
0.0
 0
LINE
 8
CAR_HATA
 6
CONTINUOUS
 62
7
 10
22071.9291994849
 20
11162.237275817
 30
0.0
 11
21840.9890918091
 21
11562.237275817
 31
0.0
 0
LINE
 8
CAR_HATA
 6
CONTINUOUS
 62
7
 10
22071.9291994849
 20
11162.237275817
 30
0.0
 11
22302.8693071608
 21
11562.237275817
 31
0.0
 0
LINE
 8
CAR_HATA
 6
CONTINUOUS
 62
7
 10
22071.9291994849
 20
19602.237275817
 30
0.0
 11
21840.9890918091
 21
19202.237275817
 31
0.0
 0
LINE
 8
CAR_HATA
 6
CONTINUOUS
 62
7
 10
22071.9291994849
 20
19602.237275817
 30
0.0
 11
22302.8693071608
 21
19202.237275817
 31
0.0
 0
TEXT
 8
CAR_HATA
 62
7
 10
22001.9291994849
 20
14952.237275817
 30
0
 11
22071.9291994849
 21
15382.237275817
 31
0
 40
430.0
 1
8440
 41
0.5
 50
90.0
 51
0.0
 7
MTC_FONT2
 72
1
 73
1
 0
LINE
 8
CAR_HATA
 6
CONTINUOUS
 62
7
 10
24316.9291994849
 20
20602.237275817
 30
0.0
 11
22071.9291994849
 21
20602.237275817
 31
0.0
 0
LINE
 8
CAR_HATA
 6
CONTINUOUS
 62
7
 10
24316.9291994849
 20
19602.237275817
 30
0.0
 11
22071.9291994849
 21
19602.237275817
 31
0.0
 0
LINE
 8
CAR_HATA
 6
CONTINUOUS
 62
7
 10
22071.9291994849
 20
19602.237275817
 30
0.0
 11
22071.9291994849
 21
20602.237275817
 31
0.0
 0
LINE
 8
CAR_HATA
 6
CONTINUOUS
 62
7
 10
22071.9291994849
 20
20602.237275817
 30
0.0
 11
22071.9291994849
 21
21602.237275817
 31
0.0
 0
LINE
 8
CAR_HATA
 6
CONTINUOUS
 62
7
 10
22071.9291994849
 20
20602.237275817
 30
0.0
 11
21840.9890918091
 21
21002.237275817
 31
0.0
 0
LINE
 8
CAR_HATA
 6
CONTINUOUS
 62
7
 10
22071.9291994849
 20
20602.237275817
 30
0.0
 11
22302.8693071608
 21
21002.237275817
 31
0.0
 0
TEXT
 8
CAR_HATA
 62
7
 10
22001.9291994849
 20
20742.237275817
 30
0
 11
22071.9291994849
 21
21602.237275817
 31
0
 40
430.0
 1
1000
 41
0.5
 50
90.0
 51
0.0
 7
MTC_FONT2
 72
2
 73
1
 0
LINE
 8
CAR_HATA
 6
CONTINUOUS
 62
7
 10
23071.9291994849
 20
7612.23727581702
 30
0.0
 11
23071.9291994849
 21
6612.23727581702
 31
0.0
 0
LINE
 8
CAR_HATA
 6
CONTINUOUS
 62
7
 10
25561.9291994849
 20
7612.23727581702
 30
0.0
 11
25561.9291994849
 21
6612.23727581702
 31
0.0
 0
LINE
 8
CAR_HATA
 6
CONTINUOUS
 62
7
 10
23071.9291994849
 20
6612.23727581702
 30
0.0
 11
25561.9291994849
 21
6612.23727581702
 31
0.0
 0
LINE
 8
CAR_HATA
 6
CONTINUOUS
 62
7
 10
23071.9291994849
 20
6612.23727581702
 30
0.0
 11
23471.9291994849
 21
6843.17738349287
 31
0.0
 0
LINE
 8
CAR_HATA
 6
CONTINUOUS
 62
7
 10
23071.9291994849
 20
6612.23727581702
 30
0.0
 11
23471.9291994849
 21
6381.29716814117
 31
0.0
 0
LINE
 8
CAR_HATA
 6
CONTINUOUS
 62
7
 10
25561.9291994849
 20
6612.23727581702
 30
0.0
 11
25161.9291994849
 21
6843.17738349287
 31
0.0
 0
LINE
 8
CAR_HATA
 6
CONTINUOUS
 62
7
 10
25561.9291994849
 20
6612.23727581702
 30
0.0
 11
25161.9291994849
 21
6381.29716814117
 31
0.0
 0
TEXT
 8
CAR_HATA
 62
7
 10
23886.9291994849
 20
6682.23727581702
 30
0
 11
24316.9291994849
 21
6612.23727581702
 31
0
 40
430.0
 1
2490
 41
0.5
 50
0.0
 51
0.0
 7
MTC_FONT2
 72
1
 73
1
 0
LINE
 8
CAR_HATA
 6
CONTINUOUS
 62
7
 10
23371.9291994849
 20
21442.237275817
 30
0.0
 11
32014.8395889313
 21
18932.237275817
 31
0.0
 0
LINE
 8
CAR_HATA
 6
CONTINUOUS
 62
7
 10
23371.9291994849
 20
21442.237275817
 30
0.0
 11
23820.4651801566
 21
21552.4589042583
 31
0.0
 0
LINE
 8
CAR_HATA
 6
CONTINUOUS
 62
7
 10
23371.9291994849
 20
21442.237275817
 30
0.0
 11
23691.6519200974
 21
21108.9045362646
 31
0.0
 0
TEXT
 8
CAR_HATA
 62
7
 10
30795.5446553329
 20
19359.226578846
 30
0
 11
32014.8395889313
 21
18932.237275817
 31
0
 40
430.0
 1
R=9000
 41
0.5
 50
343.806098676741
 51
0.0
 7
MTC_FONT2
 72
2
 73
1
 0
ARC
 8
CAR_HATA
 6
CONTINUOUS
 62
7
 10
32014.8395889313
 20
18932.237275817
 30
0.0
 40
9000.0
 50
153.806098676741
 51
168.806098676741
 0
LINE
 8
CAR_HATA
 6
CONTINUOUS
 62
7
 10
23791.7397548628
 20
24182.5968208968
 30
0.0
 11
28256.0043246751
 21
21332.2125900296
 31
0.0
 0
LINE
 8
CAR_HATA
 6
CONTINUOUS
 62
7
 10
23791.7397548628
 20
24182.5968208968
 30
0.0
 11
24253.1598081358
 21
24161.9845000456
 31
0.0
 0
LINE
 8
CAR_HATA
 6
CONTINUOUS
 62
7
 10
23791.7397548628
 20
24182.5968208968
 30
0.0
 11
24004.5989880112
 21
23772.6891725212
 31
0.0
 0
LINE
 8
CAR_HATA
 6
CONTINUOUS
 62
7
 10
28256.0043246751
 20
21332.2125900296
 30
0.0
 11
28043.1450915268
 21
21742.1202384052
 31
0.0
 0
LINE
 8
CAR_HATA
 6
CONTINUOUS
 62
7
 10
28256.0043246751
 20
21332.2125900296
 30
0.0
 11
27794.5842714021
 21
21352.8249108808
 31
0.0
 0
LINE
 8
CAR_HATA
 6
CONTINUOUS
 62
7
 10
22106.0415388093
 20
25258.8967439638
 30
0.0
 11
23791.7397548628
 21
24182.5968208968
 31
0.0
 0
TEXT
 8
CAR_HATA
 62
7
 10
22143.7120361167
 20
25317.8961815257
 30
0
 11
22106.0415388093
 21
25258.8967439638
 31
0
 40
430.0
 1
5300
 41
0.5
 50
327.442212699782
 51
0.0
 7
MTC_FONT2
 72
0
 73
1
 0
LINE
 8
CAR_HATA
 6
CONTINUOUS
 62
7
 10
22757.3842669522
 20
4612.23727581702
 30
0.0
 11
28256.0043246751
 21
4612.23727581702
 31
0.0
 0
LINE
 8
CAR_HATA
 6
CONTINUOUS
 62
7
 10
22757.3842669522
 20
4612.23727581702
 30
0.0
 11
23157.3842669522
 21
4843.17738349287
 31
0.0
 0
LINE
 8
CAR_HATA
 6
CONTINUOUS
 62
7
 10
22757.3842669522
 20
4612.23727581702
 30
0.0
 11
23157.3842669522
 21
4381.29716814117
 31
0.0
 0
LINE
 8
CAR_HATA
 6
CONTINUOUS
 62
7
 10
28256.0043246751
 20
4612.23727581702
 30
0.0
 11
27856.0043246751
 21
4843.17738349287
 31
0.0
 0
LINE
 8
CAR_HATA
 6
CONTINUOUS
 62
7
 10
28256.0043246751
 20
4612.23727581702
 30
0.0
 11
27856.0043246751
 21
4381.29716814117
 31
0.0
 0
TEXT
 8
CAR_HATA
 62
7
 10
25076.6942958137
 20
4682.23727581702
 30
0
 11
25506.6942958137
 21
4612.23727581702
 31
0
 40
430.0
 1
5500
 41
0.5
 50
0.0
 51
0.0
 7
MTC_FONT2
 72
1
 73
1
 0
LINE
 8
CAR_HATA
 6
CONTINUOUS
 62
7
 10
55159.0109081909
 20
43906.5154918176
 30
0.0
 11
51624.5660647127
 21
48118.7028318588
 31
0.0
 0
LINE
 8
CAR_HATA
 6
CONTINUOUS
 62
7
 10
55159.0109081909
 20
43906.5154918176
 30
0.0
 11
54724.9854781379
 21
44064.4878292715
 31
0.0
 0
LINE
 8
CAR_HATA
 6
CONTINUOUS
 62
7
 10
55159.0109081909
 20
43906.5154918176
 30
0.0
 11
55078.8062504947
 21
44361.3787088589
 31
0.0
 0
LINE
 8
CAR_HATA
 6
CONTINUOUS
 62
7
 10
51624.5660647127
 20
48118.7028318588
 30
0.0
 11
51704.7707224089
 21
47663.8396148175
 31
0.0
 0
LINE
 8
CAR_HATA
 6
CONTINUOUS
 62
7
 10
51624.5660647127
 20
48118.7028318588
 30
0.0
 11
52058.5914947657
 21
47960.7304944049
 31
0.0
 0
TEXT
 8
CAR_HATA
 62
7
 10
53614.5640475987
 20
45638.214918619
 30
0
 11
53391.7884864518
 21
46012.6091618382
 31
0
 40
430.0
 1
5500
 41
0.5
 50
130.0
 51
0.0
 7
MTC_FONT2
 72
1
 73
1
 0
POLYLINE
 8
TRACTOR
 6
CONTINUOUS
 62
1
 66
1
 10
0.0
 20
0.0
 30
0.0
 70
129
 0
VERTEX
 8
TRACTOR
 6
CONTINUOUS
 62
1
 10
23071.9291994849
 20
22832.237275817
 30
0.0
 0
VERTEX
 8
TRACTOR
 6
CONTINUOUS
 62
1
 10
25561.9291994849
 20
22832.237275817
 30
0.0
 0
VERTEX
 8
TRACTOR
 6
CONTINUOUS
 62
1
 10
25561.9291994849
 20
17732.237275817
 30
0.0
 0
VERTEX
 8
TRACTOR
 6
CONTINUOUS
 62
1
 10
23071.9291994849
 20
17732.237275817
 30
0.0
 0
SEQEND
 0
POLYLINE
 8
TRAILER
 6
CONTINUOUS
 62
1
 66
1
 10
0.0
 20
0.0
 30
0.0
 70
129
 0
VERTEX
 8
TRAILER
 6
CONTINUOUS
 62
1
 10
23071.9291994849
 20
20602.237275817
 30
0.0
 0
VERTEX
 8
TRAILER
 6
CONTINUOUS
 62
1
 10
25561.9291994849
 20
20602.237275817
 30
0.0
 0
VERTEX
 8
TRAILER
 6
CONTINUOUS
 62
1
 10
25561.9291994849
 20
7612.23727581702
 30
0.0
 0
VERTEX
 8
TRAILER
 6
CONTINUOUS
 62
1
 10
23071.9291994849
 20
7612.23727581702
 30
0.0
 0
SEQEND
 0
POLYLINE
 8
TRACTOR
 6
CONTINUOUS
 62
1
 66
1
 10
0.0
 20
0.0
 30
0.0
 70
129
 0
VERTEX
 8
TRACTOR
 6
CONTINUOUS
 62
1
 10
24945.131246589
 20
25655.6939900291
 30
0.0
 0
VERTEX
 8
TRACTOR
 6
CONTINUOUS
 62
1
 10
27284.9658723459
 20
24804.0638331482
 30
0.0
 0
VERTEX
 8
TRACTOR
 6
CONTINUOUS
 62
1
 10
25540.663141385
 20
20011.6314671401
 30
0.0
 0
VERTEX
 8
TRACTOR
 6
CONTINUOUS
 62
1
 10
23200.8285156281
 20
20863.261624021
 30
0.0
 0
SEQEND
 0
POLYLINE
 8
TRAILER
 6
CONTINUOUS
 62
1
 66
1
 10
0.0
 20
0.0
 30
0.0
 70
129
 0
VERTEX
 8
TRAILER
 6
CONTINUOUS
 62
1
 10
23841.6667675202
 20
23282.9118163568
 30
0.0
 0
VERTEX
 8
TRAILER
 6
CONTINUOUS
 62
1
 10
26325.0197020289
 20
23101.0926681169
 30
0.0
 0
VERTEX
 8
TRAILER
 6
CONTINUOUS
 62
1
 10
25376.4933021749
 20
10145.7695278482
 30
0.0
 0
VERTEX
 8
TRAILER
 6
CONTINUOUS
 62
1
 10
22893.1403676661
 20
10327.5886760882
 30
0.0
 0
SEQEND
 0
POLYLINE
 8
TRACTOR
 6
CONTINUOUS
 62
1
 66
1
 10
0.0
 20
0.0
 30
0.0
 70
129
 0
VERTEX
 8
TRACTOR
 6
CONTINUOUS
 62
1
 10
28206.5378389283
 20
28186.5381654521
 30
0.0
 0
VERTEX
 8
TRACTOR
 6
CONTINUOUS
 62
1
 10
30076.3853943777
 20
26542.2236823377
 30
0.0
 0
VERTEX
 8
TRACTOR
 6
CONTINUOUS
 62
1
 10
26708.5123566734
 20
22712.4154362365
 30
0.0
 0
VERTEX
 8
TRACTOR
 6
CONTINUOUS
 62
1
 10
24838.664801224
 20
24356.729919351
 30
0.0
 0
SEQEND
 0
POLYLINE
 8
TRAILER
 6
CONTINUOUS
 62
1
 66
1
 10
0.0
 20
0.0
 30
0.0
 70
129
 0
VERTEX
 8
TRAILER
 6
CONTINUOUS
 62
1
 10
26056.776090824
 20
26221.1357840731
 30
0.0
 0
VERTEX
 8
TRAILER
 6
CONTINUOUS
 62
1
 10
28465.8671874285
 20
25591.5485476549
 30
0.0
 0
VERTEX
 8
TRAILER
 6
CONTINUOUS
 62
1
 10
25181.3940143072
 20
13023.6395738022
 30
0.0
 0
VERTEX
 8
TRAILER
 6
CONTINUOUS
 62
1
 10
22772.3029177027
 20
13653.2268102204
 30
0.0
 0
SEQEND
 0
POLYLINE
 8
TRACTOR
 6
CONTINUOUS
 62
1
 66
1
 10
0.0
 20
0.0
 30
0.0
 70
129
 0
VERTEX
 8
TRACTOR
 6
CONTINUOUS
 62
1
 10
31125.4693398711
 20
30446.4252670222
 30
0.0
 0
VERTEX
 8
TRACTOR
 6
CONTINUOUS
 62
1
 10
32795.0688216201
 20
28599.119777791
 30
0.0
 0
VERTEX
 8
TRACTOR
 6
CONTINUOUS
 62
1
 10
29011.4310725924
 20
25179.4581886666
 30
0.0
 0
VERTEX
 8
TRACTOR
 6
CONTINUOUS
 62
1
 10
27341.8315908434
 20
27026.7636778978
 30
0.0
 0
SEQEND
 0
POLYLINE
 8
TRAILER
 6
CONTINUOUS
 62
1
 66
1
 10
0.0
 20
0.0
 30
0.0
 70
129
 0
VERTEX
 8
TRAILER
 6
CONTINUOUS
 62
1
 10
28865.2266937687
 20
28792.8801383666
 30
0.0
 0
VERTEX
 8
TRAILER
 6
CONTINUOUS
 62
1
 10
31116.7726638739
 20
27729.5642189414
 30
0.0
 0
VERTEX
 8
TRAILER
 6
CONTINUOUS
 62
1
 10
25569.5944336196
 20
15983.5472905613
 30
0.0
 0
VERTEX
 8
TRAILER
 6
CONTINUOUS
 62
1
 10
23318.0484635144
 20
17046.8632099864
 30
0.0
 0
SEQEND
 0
POLYLINE
 8
TRACTOR
 6
CONTINUOUS
 62
1
 66
1
 10
0.0
 20
0.0
 30
0.0
 70
129
 0
VERTEX
 8
TRACTOR
 6
CONTINUOUS
 62
1
 10
33882.5725097902
 20
32710.4106406921
 30
0.0
 0
VERTEX
 8
TRACTOR
 6
CONTINUOUS
 62
1
 10
35500.0692162284
 20
30817.3167696277
 30
0.0
 0
VERTEX
 8
TRACTOR
 6
CONTINUOUS
 62
1
 10
31622.6480345301
 20
27504.3717082484
 30
0.0
 0
VERTEX
 8
TRACTOR
 6
CONTINUOUS
 62
1
 10
30005.151328092
 20
29397.4655793128
 30
0.0
 0
SEQEND
 0
POLYLINE
 8
TRAILER
 6
CONTINUOUS
 62
1
 66
1
 10
0.0
 20
0.0
 30
0.0
 70
129
 0
VERTEX
 8
TRAILER
 6
CONTINUOUS
 62
1
 10
31744.9538131457
 20
31185.2937151083
 30
0.0
 0
VERTEX
 8
TRAILER
 6
CONTINUOUS
 62
1
 10
33825.3127198589
 20
29817.0076268725
 30
0.0
 0
VERTEX
 8
TRAILER
 6
CONTINUOUS
 62
1
 10
26687.1455366532
 20
18964.0509207668
 30
0.0
 0
VERTEX
 8
TRAILER
 6
CONTINUOUS
 62
1
 10
24606.7866299401
 20
20332.3370090025
 30
0.0
 0
SEQEND
 0
POLYLINE
 8
TRACTOR
 6
CONTINUOUS
 62
1
 66
1
 10
0.0
 20
0.0
 30
0.0
 70
129
 0
VERTEX
 8
TRACTOR
 6
CONTINUOUS
 62
1
 10
36600.5573140799
 20
34978.8687653874
 30
0.0
 0
VERTEX
 8
TRACTOR
 6
CONTINUOUS
 62
1
 10
38205.2231059082
 20
33074.886702306
 30
0.0
 0
VERTEX
 8
TRACTOR
 6
CONTINUOUS
 62
1
 10
34305.5008080306
 20
29788.2218274768
 30
0.0
 0
VERTEX
 8
TRACTOR
 6
CONTINUOUS
 62
1
 10
32700.8350162022
 20
31692.2038905583
 30
0.0
 0
SEQEND
 0
POLYLINE
 8
TRAILER
 6
CONTINUOUS
 62
1
 66
1
 10
0.0
 20
0.0
 30
0.0
 70
129
 0
VERTEX
 8
TRAILER
 6
CONTINUOUS
 62
1
 10
34592.8469378465
 20
33505.5399422682
 30
0.0
 0
VERTEX
 8
TRAILER
 6
CONTINUOUS
 62
1
 10
36529.9400185118
 20
31941.0047407343
 30
0.0
 0
VERTEX
 8
TRAILER
 6
CONTINUOUS
 62
1
 10
28367.9672201482
 20
21835.4468620828
 30
0.0
 0
VERTEX
 8
TRAILER
 6
CONTINUOUS
 62
1
 10
26430.874139483
 20
23399.9820636167
 30
0.0
 0
SEQEND
 0
POLYLINE
 8
TRACTOR
 6
CONTINUOUS
 62
1
 66
1
 10
0.0
 20
0.0
 30
0.0
 70
129
 0
VERTEX
 8
TRACTOR
 6
CONTINUOUS
 62
1
 10
39309.0773042744
 20
37248.6158459004
 30
0.0
 0
VERTEX
 8
TRACTOR
 6
CONTINUOUS
 62
1
 10
40910.6196451584
 20
35342.0057309699
 30
0.0
 0
VERTEX
 8
TRACTOR
 6
CONTINUOUS
 62
1
 10
37005.5145904813
 20
32061.7382857857
 30
0.0
 0
VERTEX
 8
TRACTOR
 6
CONTINUOUS
 62
1
 10
35403.9722495973
 20
33968.3484007163
 30
0.0
 0
SEQEND
 0
POLYLINE
 8
TRAILER
 6
CONTINUOUS
 62
1
 66
1
 10
0.0
 20
0.0
 30
0.0
 70
129
 0
VERTEX
 8
TRAILER
 6
CONTINUOUS
 62
1
 10
37399.4276387761
 20
35796.9746337057
 30
0.0
 0
VERTEX
 8
TRAILER
 6
CONTINUOUS
 62
1
 10
39229.7697972098
 20
34108.7958567214
 30
0.0
 0
VERTEX
 8
TRAILER
 6
CONTINUOUS
 62
1
 10
30422.764852219
 20
24560.1433916398
 30
0.0
 0
VERTEX
 8
TRAILER
 6
CONTINUOUS
 62
1
 10
28592.4226937854
 20
26248.3221686241
 30
0.0
 0
SEQEND
 0
POLYLINE
 8
TRACTOR
 6
CONTINUOUS
 62
1
 66
1
 10
0.0
 20
0.0
 30
0.0
 70
129
 0
VERTEX
 8
TRACTOR
 6
CONTINUOUS
 62
1
 10
42015.3030827939
 20
39518.6875616432
 30
0.0
 0
VERTEX
 8
TRACTOR
 6
CONTINUOUS
 62
1
 10
43616.0871278894
 20
37611.4407393972
 30
0.0
 0
VERTEX
 8
TRACTOR
 6
CONTINUOUS
 62
1
 10
39709.6779738915
 20
34332.7264301654
 30
0.0
 0
VERTEX
 8
TRACTOR
 6
CONTINUOUS
 62
1
 10
38108.893928796
 20
36239.9732524114
 30
0.0
 0
SEQEND
 0
POLYLINE
 8
TRAILER
 6
CONTINUOUS
 62
1
 66
1
 10
0.0
 20
0.0
 30
0.0
 70
129
 0
VERTEX
 8
TRAILER
 6
CONTINUOUS
 62
1
 10
40173.4027075248
 20
38076.5383398472
 30
0.0
 0
VERTEX
 8
TRAILER
 6
CONTINUOUS
 62
1
 10
41928.5363773107
 20
36310.297755673
 30
0.0
 0
VERTEX
 8
TRAILER
 6
CONTINUOUS
 62
1
 10
32714.2933297517
 20
27153.9980084766
 30
0.0
 0
VERTEX
 8
TRAILER
 6
CONTINUOUS
 62
1
 10
30959.1596599657
 20
28920.2385926507
 30
0.0
 0
SEQEND
 0
POLYLINE
 8
TRACTOR
 6
CONTINUOUS
 62
1
 66
1
 10
0.0
 20
0.0
 30
0.0
 70
129
 0
VERTEX
 8
TRACTOR
 6
CONTINUOUS
 62
1
 10
44720.9724608155
 20
41788.8387274789
 30
0.0
 0
VERTEX
 8
TRACTOR
 6
CONTINUOUS
 62
1
 10
46321.5725301369
 20
39881.4375064223
 30
0.0
 0
VERTEX
 8
TRACTOR
 6
CONTINUOUS
 62
1
 10
42414.8471376114
 20
36603.100015041
 30
0.0
 0
VERTEX
 8
TRACTOR
 6
CONTINUOUS
 62
1
 10
40814.2470682899
 20
38510.5012360976
 30
0.0
 0
SEQEND
 0
POLYLINE
 8
TRAILER
 6
CONTINUOUS
 62
1
 66
1
 10
0.0
 20
0.0
 30
0.0
 70
129
 0
VERTEX
 8
TRAILER
 6
CONTINUOUS
 62
1
 10
42924.4816827446
 20
40351.0295107419
 30
0.0
 0
VERTEX
 8
TRAILER
 6
CONTINUOUS
 62
1
 10
44628.1360599218
 20
38535.0829908452
 30
0.0
 0
VERTEX
 8
TRAILER
 6
CONTINUOUS
 62
1
 10
35154.5837332316
 20
29647.3438906317
 30
0.0
 0
VERTEX
 8
TRAILER
 6
CONTINUOUS
 62
1
 10
33450.9293560545
 20
31463.2904105284
 30
0.0
 0
SEQEND
 0
POLYLINE
 8
TRACTOR
 6
CONTINUOUS
 62
1
 66
1
 10
0.0
 20
0.0
 30
0.0
 70
129
 0
VERTEX
 8
TRACTOR
 6
CONTINUOUS
 62
1
 10
47426.5068802951
 20
44059.0092067255
 30
0.0
 0
VERTEX
 8
TRACTOR
 6
CONTINUOUS
 62
1
 10
49027.0623209005
 20
42151.5705362701
 30
0.0
 0
VERTEX
 8
TRACTOR
 6
CONTINUOUS
 62
1
 10
45120.2602247871
 20
38873.3244531024
 30
0.0
 0
VERTEX
 8
TRACTOR
 6
CONTINUOUS
 62
1
 10
43519.7047841817
 20
40780.7631235578
 30
0.0
 0
SEQEND
 0
POLYLINE
 8
TRAILER
 6
CONTINUOUS
 62
1
 66
1
 10
0.0
 20
0.0
 30
0.0
 70
129
 0
VERTEX
 8
TRAILER
 6
CONTINUOUS
 62
1
 10
45660.1109190902
 20
42623.2736060066
 30
0.0
 0
VERTEX
 8
TRAILER
 6
CONTINUOUS
 62
1
 10
47329.0795844971
 20
40775.398178958
 30
0.0
 0
VERTEX
 8
TRAILER
 6
CONTINUOUS
 62
1
 10
37688.9583807376
 20
32068.6098401486
 30
0.0
 0
VERTEX
 8
TRAILER
 6
CONTINUOUS
 62
1
 10
36019.9897153308
 20
33916.4852671972
 30
0.0
 0
SEQEND
 0
POLYLINE
 8
TRACTOR
 6
CONTINUOUS
 62
1
 66
1
 10
0.0
 20
0.0
 30
0.0
 70
129
 0
VERTEX
 8
TRACTOR
 6
CONTINUOUS
 62
1
 10
49590.9092241574
 20
45875.1491971131
 30
0.0
 0
VERTEX
 8
TRACTOR
 6
CONTINUOUS
 62
1
 10
51191.4549745695
 20
43967.7023955383
 30
0.0
 0
VERTEX
 8
TRACTOR
 6
CONTINUOUS
 62
1
 10
47284.6362243562
 20
40689.4761597545
 30
0.0
 0
VERTEX
 8
TRACTOR
 6
CONTINUOUS
 62
1
 10
45684.0904739441
 20
42596.9229613293
 30
0.0
 0
SEQEND
 0
POLYLINE
 8
TRAILER
 6
CONTINUOUS
 62
1
 66
1
 10
0.0
 20
0.0
 30
0.0
 70
129
 0
VERTEX
 8
TRAILER
 6
CONTINUOUS
 62
1
 10
47841.0335127104
 20
44440.2941536311
 30
0.0
 0
VERTEX
 8
TRAILER
 6
CONTINUOUS
 62
1
 10
49490.7514229515
 20
42575.2121670606
 30
0.0
 0
VERTEX
 8
TRAILER
 6
CONTINUOUS
 62
1
 10
39760.8658785539
 20
33968.8524666459
 30
0.0
 0
VERTEX
 8
TRAILER
 6
CONTINUOUS
 62
1
 10
38111.1479683127
 20
35833.9344532164
 30
0.0
 0
SEQEND
 0
LINE
 8
FUKUIN
 6
CONTINUOUS
 62
7
 10
22757.3842669522
 20
4612.23727581702
 30
0.0
 11
22757.3842669522
 21
23896.2612322305
 31
0.0
 0
LINE
 8
FUKUIN
 6
CONTINUOUS
 62
7
 10
28256.0043246751
 20
4612.23727581702
 30
0.0
 11
28256.0043246751
 21
21332.2125900296
 31
0.0
 0
LINE
 8
FUKUIN
 6
CONTINUOUS
 62
7
 10
22757.3842669522
 20
23896.2612322305
 30
0.0
 11
51624.5660647127
 21
48118.7028318588
 31
0.0
 0
LINE
 8
FUKUIN
 6
CONTINUOUS
 62
7
 10
28256.0043246751
 20
21332.2125900296
 30
0.0
 11
55159.0109081909
 21
43906.5154918176
 31
0.0
 0
CIRCLE
 8
SENYUU
 6
CONTINUOUS
 62
7
 10
26023.872039769
 20
22757.4047054632
 30
0.0
 40
2648.31778742933
 0
ENDSEC
 0
EOF
