 0
SECTION
 2
HEADER
 9
$ACADVER
 1
AC1009
 9
$EXTMIN
 10
0.0
 20
0.0
 9
$EXTMAX
 10
74250.0
 20
52500.0
 9
$LIMMIN
 10
0.0
 20
0.0
 9
$LIMMAX
 10
74250.0
 20
52500.0
 9
$LTSCALE
 40
0.25
 9
$DIMSCALE
 40
10.0
 0
ENDSEC
 0
SECTION
 2
TABLES
 0
TABLE
 2
LTYPE
 70
9
 0
LTYPE
 2
CONTINUOUS
 70
0
 3
Solid line
 72
65
 73
0
 40
0.0
 0
LTYPE
 2
DASH
 70
0
 3
DASH
 72
65
 73
2
 40
7500.0
 49
6000.0
 49
-1500.0
 0
LTYPE
 2
DASHDOT
 70
0
 3
DASHDOT
 72
65
 73
4
 40
18500.0
 49
12000.0
 49
-1500.0
 49
3500.0
 49
-1500.0
 0
LTYPE
 2
DASHDOTDOT
 70
0
 3
DASHDOTDOT
 72
65
 73
6
 40
23500.0
 49
12000.0
 49
-1500.0
 49
3500.0
 49
-1500.0
 49
3500.0
 49
-1500.0
 0
LTYPE
 2
DOT
 70
0
 3
DOT
 72
65
 73
2
 40
1750.0
 49
250.0
 49
-1500.0
 0
LTYPE
 2
DASHED1
 70
0
 3
DASHED1
 72
65
 73
2
 40
5000.0
 49
2500.0
 49
-2500.0
 0
LTYPE
 2
DASHED2
 70
0
 3
DASHED2
 72
65
 73
2
 40
2500.0
 49
1250.0
 49
-1250.0
 0
LTYPE
 2
CENTER1
 70
0
 3
CENTER1
 72
65
 73
4
 40
10000.0
 49
6250.0
 49
-1250.0
 49
1250.0
 49
-1250.0
 0
LTYPE
 2
CENTER2
 70
0
 3
CENTER2
 72
65
 73
6
 40
9500.0
 49
3250.0
 49
-1250.0
 49
1250.0
 49
-1250.0
 49
1250.0
 49
-1250.0
 0
ENDTAB
 0
TABLE
 2
LAYER
 70
10
 0
LAYER
 2
SYSLAYER
 70
0
 62
7
 6
CONTINUOUS
 0
LAYER
 2
SYSLAYER_RST
 70
0
 62
7
 6
CONTINUOUS
 0
LAYER
 2
FUKUIN
 70
0
 62
7
 6
CONTINUOUS
 0
LAYER
 2
TRACTOR
 70
0
 62
1
 6
CONTINUOUS
 0
LAYER
 2
TRAILER
 70
0
 62
1
 6
CONTINUOUS
 0
LAYER
 2
CAR_HATA
 70
0
 62
7
 6
CONTINUOUS
 0
LAYER
 2
SENYUU
 70
0
 62
7
 6
CONTINUOUS
 0
LAYER
 2
HYOU
 70
0
 62
7
 6
CONTINUOUS
 0
LAYER
 2
TRAILER2
 70
0
 62
1
 6
CONTINUOUS
 0
LAYER
 2
TRAILER3
 70
0
 62
1
 6
CONTINUOUS
 0
ENDTAB
 0
TABLE
 2
STYLE
 70
4
 0
STYLE
 2
MTC_FONT0
 70
0
 40
0.0
 41
1.0
 50
0.0
 71
0
 42
752.5
 3
MONOTXT
 4
EXTFONT
 0
STYLE
 2
MTC_FONT1
 70
0
 40
0.0
 41
1.0
 50
0.0
 71
0
 42
752.5
 3
MONOTXT
 4
EXTFONT
 0
STYLE
 2
MTC_FONT2
 70
0
 40
0.0
 41
0.5
 50
0.0
 71
0
 42
2.14999995194376
 3
MONOTXT
 4
EXTFONT
 0
STYLE
 2
MTC_FONT3
 70
0
 40
0.0
 41
1.0
 50
0.0
 71
0
 42
0.0
 3
MONOTXT
 4
EXTFONT
 0
ENDTAB
 0
TABLE
 2
DIMSTYLE
 70
0
 0
ENDTAB
 0
ENDSEC
 0
SECTION
 2
BLOCKS
 0
BLOCK
 8
0
 2
MTC_ARROW_NONE
 70
0
 10
0.0
 20
0.0
 30
0.0
 3
MTC_ARROW_NONE
 0
ENDBLK
 8
0
 0
ENDSEC
 0
SECTION
 2
ENTITIES
 0
TEXT
 8
HYOU
 62
7
 10
47500.0
 20
24140.0
 30
0
 11
47500.0
 21
25000.0
 31
0
 40
860.0
 1
タイトル         軌跡図
 41
0.5
 50
0.0
 51
0.0
 7
MTC_FONT2
 72
0
 73
3
 0
TEXT
 8
HYOU
 62
7
 10
47500.0
 20
22890.0
 30
0
 11
47500.0
 21
23750.0
 31
0
 40
860.0
 1
車両名           倉庫用軌跡図
 41
0.5
 50
0.0
 51
0.0
 7
MTC_FONT2
 72
0
 73
3
 0
TEXT
 8
HYOU
 62
7
 10
47500.0
 20
21640.0
 30
0
 11
47500.0
 21
22500.0
 31
0
 40
860.0
 1
車種             セミトレーラ
 41
0.5
 50
0.0
 51
0.0
 7
MTC_FONT2
 72
0
 73
3
 0
TEXT
 8
HYOU
 62
7
 10
47500.0
 20
20390.0
 30
0
 11
47500.0
 21
21250.0
 31
0
 40
860.0
 1
全長             15220mm
 41
0.5
 50
0.0
 51
0.0
 7
MTC_FONT2
 72
0
 73
3
 0
TEXT
 8
HYOU
 62
7
 10
47500.0
 20
19140.0
 30
0
 11
47500.0
 21
20000.0
 31
0
 40
860.0
 1
車幅             2490mm
 41
0.5
 50
0.0
 51
0.0
 7
MTC_FONT2
 72
0
 73
3
 0
TEXT
 8
HYOU
 62
7
 10
47500.0
 20
17890.0
 30
0
 11
47500.0
 21
18750.0
 31
0
 40
860.0
 1
最小回転半径     9000mm
 41
0.5
 50
0.0
 51
0.0
 7
MTC_FONT2
 72
0
 73
3
 0
TEXT
 8
HYOU
 62
7
 10
47500.0
 20
16640.0
 30
0
 11
47500.0
 21
17500.0
 31
0
 40
860.0
 1
連結最小回転半径 10030mm  JASO Z 107-04
 41
0.5
 50
0.0
 51
0.0
 7
MTC_FONT2
 72
0
 73
3
 0
TEXT
 8
HYOU
 62
7
 10
47500.0
 20
15390.0
 30
0
 11
47500.0
 21
16250.0
 31
0
 40
860.0
 1
所要道路幅       5300 (5250)mm
 41
0.5
 50
0.0
 51
0.0
 7
MTC_FONT2
 72
0
 73
3
 0
TEXT
 8
HYOU
 62
7
 10
47500.0
 20
14140.0
 30
0
 11
47500.0
 21
15000.0
 31
0
 40
860.0
 1
所要占有幅       5200 (5114)mm
 41
0.5
 50
0.0
 51
0.0
 7
MTC_FONT2
 72
0
 73
3
 0
TEXT
 8
HYOU
 62
7
 10
47500.0
 20
12890.0
 30
0
 11
47500.0
 21
13750.0
 31
0
 40
860.0
 1
旋回方向         右旋回
 41
0.5
 50
0.0
 51
0.0
 7
MTC_FONT2
 72
0
 73
3
 0
TEXT
 8
HYOU
 62
7
 10
47500.0
 20
11640.0
 30
0
 11
47500.0
 21
12500.0
 31
0
 40
860.0
 1
旋回角度         45.000度
 41
0.5
 50
0.0
 51
0.0
 7
MTC_FONT2
 72
0
 73
3
 0
TEXT
 8
HYOU
 62
7
 10
47500.0
 20
10390.0
 30
0
 11
47500.0
 21
11250.0
 31
0
 40
860.0
 1
スケール         1/250
 41
0.5
 50
0.0
 51
0.0
 7
MTC_FONT2
 72
0
 73
3
 0
TEXT
 8
HYOU
 62
7
 10
47500.0
 20
9140.0
 30
0
 11
47500.0
 21
10000.0
 31
0
 40
860.0
 1
作図方法         JASO Z 006 プロッタ法
 41
0.5
 50
0.0
 51
0.0
 7
MTC_FONT2
 72
0
 73
3
 0
TEXT
 8
HYOU
 62
7
 10
47500.0
 20
7890.0
 30
0
 11
47500.0
 21
8750.0
 31
0
 40
860.0
 1
  刻み角         5度
 41
0.5
 50
0.0
 51
0.0
 7
MTC_FONT2
 72
0
 73
3
 0
TEXT
 8
HYOU
 62
7
 10
47500.0
 20
6640.0
 30
0
 11
47500.0
 21
7500.0
 31
0
 40
860.0
 1
  表示間隔       5
 41
0.5
 50
0.0
 51
0.0
 7
MTC_FONT2
 72
0
 73
3
 0
LINE
 8
CAR_HATA
 6
CONTINUOUS
 62
7
 10
25537.4414787677
 20
22033.2187943173
 30
0.0
 11
20292.4414787677
 21
22033.2187943173
 31
0.0
 0
LINE
 8
CAR_HATA
 6
CONTINUOUS
 62
7
 10
25537.4414787677
 20
6813.21879431725
 30
0.0
 11
20292.4414787677
 21
6813.21879431725
 31
0.0
 0
LINE
 8
CAR_HATA
 6
CONTINUOUS
 62
7
 10
20292.4414787677
 20
6813.21879431725
 30
0.0
 11
20292.4414787677
 21
22033.2187943173
 31
0.0
 0
LINE
 8
CAR_HATA
 6
CONTINUOUS
 62
7
 10
20292.4414787677
 20
6813.21879431725
 30
0.0
 11
20061.5013710919
 21
7213.21879431725
 31
0.0
 0
LINE
 8
CAR_HATA
 6
CONTINUOUS
 62
7
 10
20292.4414787677
 20
6813.21879431725
 30
0.0
 11
20523.3815864436
 21
7213.21879431725
 31
0.0
 0
LINE
 8
CAR_HATA
 6
CONTINUOUS
 62
7
 10
20292.4414787677
 20
22033.2187943173
 30
0.0
 11
20061.5013710919
 21
21633.2187943172
 31
0.0
 0
LINE
 8
CAR_HATA
 6
CONTINUOUS
 62
7
 10
20292.4414787677
 20
22033.2187943173
 30
0.0
 11
20523.3815864436
 21
21633.2187943172
 31
0.0
 0
TEXT
 8
CAR_HATA
 62
7
 10
20222.4414787677
 20
13885.7187943173
 30
0
 11
20292.4414787677
 21
14423.2187943173
 31
0
 40
430.0
 1
15220
 41
0.5
 50
90.0
 51
0.0
 7
MTC_FONT2
 72
1
 73
1
 0
LINE
 8
CAR_HATA
 6
CONTINUOUS
 62
7
 10
25537.4414787677
 20
22033.2187943173
 30
0.0
 11
21292.4414787677
 21
22033.2187943173
 31
0.0
 0
LINE
 8
CAR_HATA
 6
CONTINUOUS
 62
7
 10
25537.4414787677
 20
20643.2187943173
 30
0.0
 11
21292.4414787677
 21
20643.2187943173
 31
0.0
 0
LINE
 8
CAR_HATA
 6
CONTINUOUS
 62
7
 10
21292.4414787677
 20
20643.2187943173
 30
0.0
 11
21292.4414787677
 21
22033.2187943173
 31
0.0
 0
LINE
 8
CAR_HATA
 6
CONTINUOUS
 62
7
 10
21292.4414787677
 20
20643.2187943173
 30
0.0
 11
21061.5013710919
 21
21043.2187943172
 31
0.0
 0
LINE
 8
CAR_HATA
 6
CONTINUOUS
 62
7
 10
21292.4414787677
 20
20643.2187943173
 30
0.0
 11
21523.3815864436
 21
21043.2187943172
 31
0.0
 0
LINE
 8
CAR_HATA
 6
CONTINUOUS
 62
7
 10
21292.4414787677
 20
22033.2187943173
 30
0.0
 11
21061.5013710919
 21
21633.2187943172
 31
0.0
 0
LINE
 8
CAR_HATA
 6
CONTINUOUS
 62
7
 10
21292.4414787677
 20
22033.2187943173
 30
0.0
 11
21523.3815864436
 21
21633.2187943172
 31
0.0
 0
TEXT
 8
CAR_HATA
 62
7
 10
21222.4414787677
 20
20908.2187943173
 30
0
 11
21292.4414787677
 21
21338.2187943173
 31
0
 40
430.0
 1
1390
 41
0.5
 50
90.0
 51
0.0
 7
MTC_FONT2
 72
1
 73
1
 0
LINE
 8
CAR_HATA
 6
CONTINUOUS
 62
7
 10
25537.4414787677
 20
20643.2187943173
 30
0.0
 11
21292.4414787677
 21
20643.2187943173
 31
0.0
 0
LINE
 8
CAR_HATA
 6
CONTINUOUS
 62
7
 10
25537.4414787677
 20
18133.2187943173
 30
0.0
 11
21292.4414787677
 21
18133.2187943173
 31
0.0
 0
LINE
 8
CAR_HATA
 6
CONTINUOUS
 62
7
 10
21292.4414787677
 20
18133.2187943173
 30
0.0
 11
21292.4414787677
 21
20643.2187943173
 31
0.0
 0
LINE
 8
CAR_HATA
 6
CONTINUOUS
 62
7
 10
21292.4414787677
 20
18133.2187943173
 30
0.0
 11
21061.5013710919
 21
18533.2187943173
 31
0.0
 0
LINE
 8
CAR_HATA
 6
CONTINUOUS
 62
7
 10
21292.4414787677
 20
18133.2187943173
 30
0.0
 11
21523.3815864436
 21
18533.2187943173
 31
0.0
 0
LINE
 8
CAR_HATA
 6
CONTINUOUS
 62
7
 10
21292.4414787677
 20
20643.2187943173
 30
0.0
 11
21061.5013710919
 21
20243.2187943173
 31
0.0
 0
LINE
 8
CAR_HATA
 6
CONTINUOUS
 62
7
 10
21292.4414787677
 20
20643.2187943173
 30
0.0
 11
21523.3815864436
 21
20243.2187943173
 31
0.0
 0
TEXT
 8
CAR_HATA
 62
7
 10
21222.4414787677
 20
18958.2187943173
 30
0
 11
21292.4414787677
 21
19388.2187943173
 31
0
 40
430.0
 1
2510
 41
0.5
 50
90.0
 51
0.0
 7
MTC_FONT2
 72
1
 73
1
 0
LINE
 8
CAR_HATA
 6
CONTINUOUS
 62
7
 10
25537.4414787677
 20
18133.2187943173
 30
0.0
 11
21292.4414787677
 21
18133.2187943173
 31
0.0
 0
LINE
 8
CAR_HATA
 6
CONTINUOUS
 62
7
 10
25537.4414787677
 20
16933.2187943173
 30
0.0
 11
21292.4414787677
 21
16933.2187943173
 31
0.0
 0
LINE
 8
CAR_HATA
 6
CONTINUOUS
 62
7
 10
21292.4414787677
 20
16933.2187943173
 30
0.0
 11
21292.4414787677
 21
18133.2187943173
 31
0.0
 0
LINE
 8
CAR_HATA
 6
CONTINUOUS
 62
7
 10
21292.4414787677
 20
16933.2187943173
 30
0.0
 11
21061.5013710919
 21
17333.2187943173
 31
0.0
 0
LINE
 8
CAR_HATA
 6
CONTINUOUS
 62
7
 10
21292.4414787677
 20
16933.2187943173
 30
0.0
 11
21523.3815864436
 21
17333.2187943173
 31
0.0
 0
LINE
 8
CAR_HATA
 6
CONTINUOUS
 62
7
 10
21292.4414787677
 20
18133.2187943173
 30
0.0
 11
21061.5013710919
 21
17733.2187943173
 31
0.0
 0
LINE
 8
CAR_HATA
 6
CONTINUOUS
 62
7
 10
21292.4414787677
 20
18133.2187943173
 30
0.0
 11
21523.3815864436
 21
17733.2187943173
 31
0.0
 0
TEXT
 8
CAR_HATA
 62
7
 10
21222.4414787677
 20
17103.2187943173
 30
0
 11
21292.4414787677
 21
17533.2187943173
 31
0
 40
430.0
 1
1200
 41
0.5
 50
90.0
 51
0.0
 7
MTC_FONT2
 72
1
 73
1
 0
LINE
 8
CAR_HATA
 6
CONTINUOUS
 62
7
 10
25537.4414787677
 20
18803.2187943173
 30
0.0
 11
22292.4414787677
 21
18803.2187943173
 31
0.0
 0
LINE
 8
CAR_HATA
 6
CONTINUOUS
 62
7
 10
25537.4414787677
 20
18133.2187943173
 30
0.0
 11
22292.4414787677
 21
18133.2187943173
 31
0.0
 0
LINE
 8
CAR_HATA
 6
CONTINUOUS
 62
7
 10
22292.4414787677
 20
18133.2187943173
 30
0.0
 11
22292.4414787677
 21
18803.2187943173
 31
0.0
 0
LINE
 8
CAR_HATA
 6
CONTINUOUS
 62
7
 10
22292.4414787677
 20
18803.2187943173
 30
0.0
 11
22292.4414787677
 21
19803.2187943173
 31
0.0
 0
LINE
 8
CAR_HATA
 6
CONTINUOUS
 62
7
 10
22292.4414787677
 20
18803.2187943173
 30
0.0
 11
22061.5013710919
 21
19203.2187943172
 31
0.0
 0
LINE
 8
CAR_HATA
 6
CONTINUOUS
 62
7
 10
22292.4414787677
 20
18803.2187943173
 30
0.0
 11
22523.3815864436
 21
19203.2187943172
 31
0.0
 0
TEXT
 8
CAR_HATA
 62
7
 10
22222.4414787677
 20
19158.2187943173
 30
0
 11
22292.4414787677
 21
19803.2187943173
 31
0
 40
430.0
 1
670
 41
0.5
 50
90.0
 51
0.0
 7
MTC_FONT2
 72
2
 73
1
 0
LINE
 8
CAR_HATA
 6
CONTINUOUS
 62
7
 10
22292.4414787677
 20
17133.2187943173
 30
0.0
 11
22292.4414787677
 21
18133.2187943173
 31
0.0
 0
LINE
 8
CAR_HATA
 6
CONTINUOUS
 62
7
 10
22292.4414787677
 20
18133.2187943173
 30
0.0
 11
22061.5013710919
 21
17733.2187943173
 31
0.0
 0
LINE
 8
CAR_HATA
 6
CONTINUOUS
 62
7
 10
22292.4414787677
 20
18133.2187943173
 30
0.0
 11
22523.3815864436
 21
17733.2187943173
 31
0.0
 0
LINE
 8
CAR_HATA
 6
CONTINUOUS
 62
7
 10
25537.4414787677
 20
10363.2187943173
 30
0.0
 11
23292.4414787677
 21
10363.2187943173
 31
0.0
 0
LINE
 8
CAR_HATA
 6
CONTINUOUS
 62
7
 10
25537.4414787677
 20
6813.21879431725
 30
0.0
 11
23292.4414787677
 21
6813.21879431725
 31
0.0
 0
LINE
 8
CAR_HATA
 6
CONTINUOUS
 62
7
 10
23292.4414787677
 20
6813.21879431725
 30
0.0
 11
23292.4414787677
 21
10363.2187943173
 31
0.0
 0
LINE
 8
CAR_HATA
 6
CONTINUOUS
 62
7
 10
23292.4414787677
 20
6813.21879431725
 30
0.0
 11
23061.5013710919
 21
7213.21879431725
 31
0.0
 0
LINE
 8
CAR_HATA
 6
CONTINUOUS
 62
7
 10
23292.4414787677
 20
6813.21879431725
 30
0.0
 11
23523.3815864436
 21
7213.21879431725
 31
0.0
 0
LINE
 8
CAR_HATA
 6
CONTINUOUS
 62
7
 10
23292.4414787677
 20
10363.2187943173
 30
0.0
 11
23061.5013710919
 21
9963.21879431725
 31
0.0
 0
LINE
 8
CAR_HATA
 6
CONTINUOUS
 62
7
 10
23292.4414787677
 20
10363.2187943173
 30
0.0
 11
23523.3815864436
 21
9963.21879431725
 31
0.0
 0
TEXT
 8
CAR_HATA
 62
7
 10
23222.4414787677
 20
8158.21879431725
 30
0
 11
23292.4414787677
 21
8588.21879431725
 31
0
 40
430.0
 1
3550
 41
0.5
 50
90.0
 51
0.0
 7
MTC_FONT2
 72
1
 73
1
 0
LINE
 8
CAR_HATA
 6
CONTINUOUS
 62
7
 10
25537.4414787677
 20
18803.2187943173
 30
0.0
 11
23292.4414787677
 21
18803.2187943173
 31
0.0
 0
LINE
 8
CAR_HATA
 6
CONTINUOUS
 62
7
 10
25537.4414787677
 20
10363.2187943173
 30
0.0
 11
23292.4414787677
 21
10363.2187943173
 31
0.0
 0
LINE
 8
CAR_HATA
 6
CONTINUOUS
 62
7
 10
23292.4414787677
 20
10363.2187943173
 30
0.0
 11
23292.4414787677
 21
18803.2187943173
 31
0.0
 0
LINE
 8
CAR_HATA
 6
CONTINUOUS
 62
7
 10
23292.4414787677
 20
10363.2187943173
 30
0.0
 11
23061.5013710919
 21
10763.2187943173
 31
0.0
 0
LINE
 8
CAR_HATA
 6
CONTINUOUS
 62
7
 10
23292.4414787677
 20
10363.2187943173
 30
0.0
 11
23523.3815864436
 21
10763.2187943173
 31
0.0
 0
LINE
 8
CAR_HATA
 6
CONTINUOUS
 62
7
 10
23292.4414787677
 20
18803.2187943173
 30
0.0
 11
23061.5013710919
 21
18403.2187943173
 31
0.0
 0
LINE
 8
CAR_HATA
 6
CONTINUOUS
 62
7
 10
23292.4414787677
 20
18803.2187943173
 30
0.0
 11
23523.3815864436
 21
18403.2187943173
 31
0.0
 0
TEXT
 8
CAR_HATA
 62
7
 10
23222.4414787677
 20
14153.2187943173
 30
0
 11
23292.4414787677
 21
14583.2187943173
 31
0
 40
430.0
 1
8440
 41
0.5
 50
90.0
 51
0.0
 7
MTC_FONT2
 72
1
 73
1
 0
LINE
 8
CAR_HATA
 6
CONTINUOUS
 62
7
 10
25537.4414787677
 20
19803.2187943173
 30
0.0
 11
23292.4414787677
 21
19803.2187943173
 31
0.0
 0
LINE
 8
CAR_HATA
 6
CONTINUOUS
 62
7
 10
25537.4414787677
 20
18803.2187943173
 30
0.0
 11
23292.4414787677
 21
18803.2187943173
 31
0.0
 0
LINE
 8
CAR_HATA
 6
CONTINUOUS
 62
7
 10
23292.4414787677
 20
18803.2187943173
 30
0.0
 11
23292.4414787677
 21
19803.2187943173
 31
0.0
 0
LINE
 8
CAR_HATA
 6
CONTINUOUS
 62
7
 10
23292.4414787677
 20
19803.2187943173
 30
0.0
 11
23292.4414787677
 21
20803.2187943173
 31
0.0
 0
LINE
 8
CAR_HATA
 6
CONTINUOUS
 62
7
 10
23292.4414787677
 20
19803.2187943173
 30
0.0
 11
23061.5013710919
 21
20203.2187943173
 31
0.0
 0
LINE
 8
CAR_HATA
 6
CONTINUOUS
 62
7
 10
23292.4414787677
 20
19803.2187943173
 30
0.0
 11
23523.3815864436
 21
20203.2187943173
 31
0.0
 0
TEXT
 8
CAR_HATA
 62
7
 10
23222.4414787677
 20
19943.2187943173
 30
0
 11
23292.4414787677
 21
20803.2187943173
 31
0
 40
430.0
 1
1000
 41
0.5
 50
90.0
 51
0.0
 7
MTC_FONT2
 72
2
 73
1
 0
LINE
 8
CAR_HATA
 6
CONTINUOUS
 62
7
 10
24292.4414787677
 20
6813.21879431725
 30
0.0
 11
24292.4414787677
 21
5813.21879431725
 31
0.0
 0
LINE
 8
CAR_HATA
 6
CONTINUOUS
 62
7
 10
26782.4414787677
 20
6813.21879431725
 30
0.0
 11
26782.4414787677
 21
5813.21879431725
 31
0.0
 0
LINE
 8
CAR_HATA
 6
CONTINUOUS
 62
7
 10
24292.4414787677
 20
5813.21879431725
 30
0.0
 11
26782.4414787677
 21
5813.21879431725
 31
0.0
 0
LINE
 8
CAR_HATA
 6
CONTINUOUS
 62
7
 10
24292.4414787677
 20
5813.21879431725
 30
0.0
 11
24692.4414787677
 21
6044.1589019931
 31
0.0
 0
LINE
 8
CAR_HATA
 6
CONTINUOUS
 62
7
 10
24292.4414787677
 20
5813.21879431725
 30
0.0
 11
24692.4414787677
 21
5582.2786866414
 31
0.0
 0
LINE
 8
CAR_HATA
 6
CONTINUOUS
 62
7
 10
26782.4414787677
 20
5813.21879431725
 30
0.0
 11
26382.4414787677
 21
6044.1589019931
 31
0.0
 0
LINE
 8
CAR_HATA
 6
CONTINUOUS
 62
7
 10
26782.4414787677
 20
5813.21879431725
 30
0.0
 11
26382.4414787677
 21
5582.2786866414
 31
0.0
 0
TEXT
 8
CAR_HATA
 62
7
 10
25107.4414787677
 20
5883.21879431725
 30
0
 11
25537.4414787677
 21
5813.21879431725
 31
0
 40
430.0
 1
2490
 41
0.5
 50
0.0
 51
0.0
 7
MTC_FONT2
 72
1
 73
1
 0
LINE
 8
CAR_HATA
 6
CONTINUOUS
 62
7
 10
24592.4414787677
 20
20643.2187943173
 30
0.0
 11
33235.3518682141
 21
18133.2187943173
 31
0.0
 0
LINE
 8
CAR_HATA
 6
CONTINUOUS
 62
7
 10
24592.4414787677
 20
20643.2187943173
 30
0.0
 11
25040.9774594394
 21
20753.4404227585
 31
0.0
 0
LINE
 8
CAR_HATA
 6
CONTINUOUS
 62
7
 10
24592.4414787677
 20
20643.2187943173
 30
0.0
 11
24912.1641993802
 21
20309.8860547649
 31
0.0
 0
TEXT
 8
CAR_HATA
 62
7
 10
32016.0569346157
 20
18560.2080973463
 30
0
 11
33235.3518682141
 21
18133.2187943173
 31
0
 40
430.0
 1
R=9000
 41
0.5
 50
343.806098676741
 51
0.0
 7
MTC_FONT2
 72
2
 73
1
 0
ARC
 8
CAR_HATA
 6
CONTINUOUS
 62
7
 10
33235.3518682141
 20
18133.2187943173
 30
0.0
 40
9000.0
 50
153.806098676741
 51
168.806098676741
 0
LINE
 8
CAR_HATA
 6
CONTINUOUS
 62
7
 10
24485.0825989651
 20
22448.1271304589
 30
0.0
 11
29071.4201060379
 21
20186.5251919707
 31
0.0
 0
LINE
 8
CAR_HATA
 6
CONTINUOUS
 62
7
 10
24485.0825989651
 20
22448.1271304589
 30
0.0
 11
24945.9732074809
 21
22478.3460039531
 31
0.0
 0
LINE
 8
CAR_HATA
 6
CONTINUOUS
 62
7
 10
24485.0825989651
 20
22448.1271304589
 30
0.0
 11
24741.6982153427
 21
22064.0935918656
 31
0.0
 0
LINE
 8
CAR_HATA
 6
CONTINUOUS
 62
7
 10
29071.4201060379
 20
20186.5251919707
 30
0.0
 11
28814.8044896603
 21
20570.5587305639
 31
0.0
 0
LINE
 8
CAR_HATA
 6
CONTINUOUS
 62
7
 10
29071.4201060379
 20
20186.5251919707
 30
0.0
 11
28610.5294975221
 21
20156.3063184765
 31
0.0
 0
LINE
 8
CAR_HATA
 6
CONTINUOUS
 62
7
 10
22691.3170367315
 20
23332.6637932066
 30
0.0
 11
24485.0825989651
 21
22448.1271304589
 31
0.0
 0
TEXT
 8
CAR_HATA
 62
7
 10
22722.2758199277
 20
23395.4455878848
 30
0
 11
22691.3170367315
 21
23332.6637932066
 31
0
 40
430.0
 1
5200
 41
0.5
 50
333.751300596305
 51
0.0
 7
MTC_FONT2
 72
0
 73
1
 0
LINE
 8
CAR_HATA
 6
CONTINUOUS
 62
7
 10
23997.5204383337
 20
3813.21879431725
 30
0.0
 11
29246.8114888007
 21
3813.21879431725
 31
0.0
 0
LINE
 8
CAR_HATA
 6
CONTINUOUS
 62
7
 10
23997.5204383337
 20
3813.21879431725
 30
0.0
 11
24397.5204383337
 21
4044.1589019931
 31
0.0
 0
LINE
 8
CAR_HATA
 6
CONTINUOUS
 62
7
 10
23997.5204383337
 20
3813.21879431725
 30
0.0
 11
24397.5204383337
 21
3582.2786866414
 31
0.0
 0
LINE
 8
CAR_HATA
 6
CONTINUOUS
 62
7
 10
29246.8114888007
 20
3813.21879431725
 30
0.0
 11
28846.8114888007
 21
4044.1589019931
 31
0.0
 0
LINE
 8
CAR_HATA
 6
CONTINUOUS
 62
7
 10
29246.8114888007
 20
3813.21879431725
 30
0.0
 11
28846.8114888007
 21
3582.2786866414
 31
0.0
 0
TEXT
 8
CAR_HATA
 62
7
 10
26192.1659635672
 20
3883.21879431725
 30
0
 11
26622.1659635672
 21
3813.21879431725
 31
0
 40
430.0
 1
5300
 41
0.5
 50
0.0
 51
0.0
 7
MTC_FONT2
 72
1
 73
1
 0
LINE
 8
CAR_HATA
 6
CONTINUOUS
 62
7
 10
53938.4986289081
 20
45205.9120151515
 30
0.0
 11
50226.6893307011
 21
48917.7213133586
 31
0.0
 0
LINE
 8
CAR_HATA
 6
CONTINUOUS
 62
7
 10
53938.4986289081
 20
45205.9120151515
 30
0.0
 11
53492.356600248
 21
45325.4554114406
 31
0.0
 0
LINE
 8
CAR_HATA
 6
CONTINUOUS
 62
7
 10
53938.4986289081
 20
45205.9120151515
 30
0.0
 11
53818.9552326191
 21
45652.0540438117
 31
0.0
 0
LINE
 8
CAR_HATA
 6
CONTINUOUS
 62
7
 10
50226.6893307011
 20
48917.7213133586
 30
0.0
 11
50346.2327269901
 21
48471.5792846984
 31
0.0
 0
LINE
 8
CAR_HATA
 6
CONTINUOUS
 62
7
 10
50226.6893307011
 20
48917.7213133586
 30
0.0
 11
50672.8313593612
 21
48798.1779170695
 31
0.0
 0
TEXT
 8
CAR_HATA
 62
7
 10
52337.1524210317
 20
46708.2632736618
 30
0
 11
52082.5939798046
 21
47061.8166642551
 31
0
 40
430.0
 1
5300
 41
0.5
 50
135.0
 51
0.0
 7
MTC_FONT2
 72
1
 73
1
 0
POLYLINE
 8
TRACTOR
 6
CONTINUOUS
 62
1
 66
1
 10
0.0
 20
0.0
 30
0.0
 70
129
 0
VERTEX
 8
TRACTOR
 6
CONTINUOUS
 62
1
 10
24292.4414787677
 20
22033.2187943173
 30
0.0
 0
VERTEX
 8
TRACTOR
 6
CONTINUOUS
 62
1
 10
26782.4414787677
 20
22033.2187943173
 30
0.0
 0
VERTEX
 8
TRACTOR
 6
CONTINUOUS
 62
1
 10
26782.4414787677
 20
16933.2187943173
 30
0.0
 0
VERTEX
 8
TRACTOR
 6
CONTINUOUS
 62
1
 10
24292.4414787677
 20
16933.2187943173
 30
0.0
 0
SEQEND
 0
POLYLINE
 8
TRAILER
 6
CONTINUOUS
 62
1
 66
1
 10
0.0
 20
0.0
 30
0.0
 70
129
 0
VERTEX
 8
TRAILER
 6
CONTINUOUS
 62
1
 10
24292.4414787677
 20
19803.2187943173
 30
0.0
 0
VERTEX
 8
TRAILER
 6
CONTINUOUS
 62
1
 10
26782.4414787677
 20
19803.2187943173
 30
0.0
 0
VERTEX
 8
TRAILER
 6
CONTINUOUS
 62
1
 10
26782.4414787677
 20
6813.21879431725
 30
0.0
 0
VERTEX
 8
TRAILER
 6
CONTINUOUS
 62
1
 10
24292.4414787677
 20
6813.21879431725
 30
0.0
 0
SEQEND
 0
POLYLINE
 8
TRACTOR
 6
CONTINUOUS
 62
1
 66
1
 10
0.0
 20
0.0
 30
0.0
 70
129
 0
VERTEX
 8
TRACTOR
 6
CONTINUOUS
 62
1
 10
26165.6435258718
 20
24856.6755085293
 30
0.0
 0
VERTEX
 8
TRACTOR
 6
CONTINUOUS
 62
1
 10
28505.4781516287
 20
24005.0453516484
 30
0.0
 0
VERTEX
 8
TRACTOR
 6
CONTINUOUS
 62
1
 10
26761.1754206678
 20
19212.6129856403
 30
0.0
 0
VERTEX
 8
TRACTOR
 6
CONTINUOUS
 62
1
 10
24421.3407949109
 20
20064.2431425212
 30
0.0
 0
SEQEND
 0
POLYLINE
 8
TRAILER
 6
CONTINUOUS
 62
1
 66
1
 10
0.0
 20
0.0
 30
0.0
 70
129
 0
VERTEX
 8
TRAILER
 6
CONTINUOUS
 62
1
 10
25062.1790468029
 20
22483.893334857
 30
0.0
 0
VERTEX
 8
TRAILER
 6
CONTINUOUS
 62
1
 10
27545.5319813117
 20
22302.0741866171
 30
0.0
 0
VERTEX
 8
TRAILER
 6
CONTINUOUS
 62
1
 10
26597.0055814577
 20
9346.75104634847
 30
0.0
 0
VERTEX
 8
TRAILER
 6
CONTINUOUS
 62
1
 10
24113.6526469489
 20
9528.57019458838
 30
0.0
 0
SEQEND
 0
POLYLINE
 8
TRACTOR
 6
CONTINUOUS
 62
1
 66
1
 10
0.0
 20
0.0
 30
0.0
 70
129
 0
VERTEX
 8
TRACTOR
 6
CONTINUOUS
 62
1
 10
29203.7324555145
 20
27525.2551524134
 30
0.0
 0
VERTEX
 8
TRACTOR
 6
CONTINUOUS
 62
1
 10
31153.4563810072
 20
25976.4889937047
 30
0.0
 0
VERTEX
 8
TRACTOR
 6
CONTINUOUS
 62
1
 10
27981.2847306399
 20
21983.0785439004
 30
0.0
 0
VERTEX
 8
TRACTOR
 6
CONTINUOUS
 62
1
 10
26031.5608051472
 20
23531.8447026091
 30
0.0
 0
SEQEND
 0
POLYLINE
 8
TRAILER
 6
CONTINUOUS
 62
1
 66
1
 10
0.0
 20
0.0
 30
0.0
 70
129
 0
VERTEX
 8
TRAILER
 6
CONTINUOUS
 62
1
 10
27207.6589571175
 20
25496.3830815792
 30
0.0
 0
VERTEX
 8
TRAILER
 6
CONTINUOUS
 62
1
 10
29621.6934762107
 20
24886.024710926
 30
0.0
 0
VERTEX
 8
TRAILER
 6
CONTINUOUS
 62
1
 10
26437.5347473813
 20
12292.3265571024
 30
0.0
 0
VERTEX
 8
TRAILER
 6
CONTINUOUS
 62
1
 10
24023.5002282881
 20
12902.6849277556
 30
0.0
 0
SEQEND
 0
POLYLINE
 8
TRACTOR
 6
CONTINUOUS
 62
1
 66
1
 10
0.0
 20
0.0
 30
0.0
 70
129
 0
VERTEX
 8
TRACTOR
 6
CONTINUOUS
 62
1
 10
31862.2309226352
 20
30025.1607528843
 30
0.0
 0
VERTEX
 8
TRACTOR
 6
CONTINUOUS
 62
1
 10
33671.0298546328
 20
28313.9195590124
 30
0.0
 0
VERTEX
 8
TRACTOR
 6
CONTINUOUS
 62
1
 10
30166.0780117626
 20
24609.1506621497
 30
0.0
 0
VERTEX
 8
TRACTOR
 6
CONTINUOUS
 62
1
 10
28357.279079765
 20
26320.3918560216
 30
0.0
 0
SEQEND
 0
POLYLINE
 8
TRAILER
 6
CONTINUOUS
 62
1
 66
1
 10
0.0
 20
0.0
 30
0.0
 70
129
 0
VERTEX
 8
TRAILER
 6
CONTINUOUS
 62
1
 10
29807.6909086537
 20
28238.708339645
 30
0.0
 0
VERTEX
 8
TRAILER
 6
CONTINUOUS
 62
1
 10
32088.4567394566
 20
27239.6051292401
 30
0.0
 0
VERTEX
 8
TRAILER
 6
CONTINUOUS
 62
1
 10
26876.2677020428
 20
15341.1520601112
 30
0.0
 0
VERTEX
 8
TRAILER
 6
CONTINUOUS
 62
1
 10
24595.5018712398
 20
16340.2552705161
 30
0.0
 0
SEQEND
 0
POLYLINE
 8
TRACTOR
 6
CONTINUOUS
 62
1
 66
1
 10
0.0
 20
0.0
 30
0.0
 70
129
 0
VERTEX
 8
TRACTOR
 6
CONTINUOUS
 62
1
 10
34398.7009904446
 20
32521.0195062605
 30
0.0
 0
VERTEX
 8
TRACTOR
 6
CONTINUOUS
 62
1
 10
36171.1913906783
 20
30772.1976796928
 30
0.0
 0
VERTEX
 8
TRACTOR
 6
CONTINUOUS
 62
1
 10
32589.267167588
 20
27141.7956551177
 30
0.0
 0
VERTEX
 8
TRACTOR
 6
CONTINUOUS
 62
1
 10
30816.7767673543
 20
28890.6174816854
 30
0.0
 0
SEQEND
 0
POLYLINE
 8
TRAILER
 6
CONTINUOUS
 62
1
 66
1
 10
0.0
 20
0.0
 30
0.0
 70
129
 0
VERTEX
 8
TRAILER
 6
CONTINUOUS
 62
1
 10
32455.5861506214
 20
30842.5193031418
 30
0.0
 0
VERTEX
 8
TRAILER
 6
CONTINUOUS
 62
1
 10
34597.3277416312
 20
29572.463021972
 30
0.0
 0
VERTEX
 8
TRAILER
 6
CONTINUOUS
 62
1
 10
27971.6124434804
 20
18399.280986945
 30
0.0
 0
VERTEX
 8
TRAILER
 6
CONTINUOUS
 62
1
 10
25829.8708524706
 20
19669.3372681148
 30
0.0
 0
SEQEND
 0
POLYLINE
 8
TRACTOR
 6
CONTINUOUS
 62
1
 66
1
 10
0.0
 20
0.0
 30
0.0
 70
129
 0
VERTEX
 8
TRACTOR
 6
CONTINUOUS
 62
1
 10
36905.5258524115
 20
35017.8741933035
 30
0.0
 0
VERTEX
 8
TRACTOR
 6
CONTINUOUS
 62
1
 10
38669.090036676
 20
33260.0512875535
 30
0.0
 0
VERTEX
 8
TRACTOR
 6
CONTINUOUS
 62
1
 10
35068.7298682724
 20
29647.9318739997
 30
0.0
 0
VERTEX
 8
TRACTOR
 6
CONTINUOUS
 62
1
 10
33305.1656840078
 20
31405.7547797497
 30
0.0
 0
SEQEND
 0
POLYLINE
 8
TRAILER
 6
CONTINUOUS
 62
1
 66
1
 10
0.0
 20
0.0
 30
0.0
 70
129
 0
VERTEX
 8
TRAILER
 6
CONTINUOUS
 62
1
 10
35074.0550458515
 20
33388.3344531718
 30
0.0
 0
VERTEX
 8
TRAILER
 6
CONTINUOUS
 62
1
 10
37101.3474788505
 20
31942.5871062592
 30
0.0
 0
VERTEX
 8
TRAILER
 6
CONTINUOUS
 62
1
 10
29559.0751750774
 20
21366.4711606137
 30
0.0
 0
VERTEX
 8
TRAILER
 6
CONTINUOUS
 62
1
 10
27531.7827420784
 20
22812.2185075264
 30
0.0
 0
SEQEND
 0
POLYLINE
 8
TRACTOR
 6
CONTINUOUS
 62
1
 66
1
 10
0.0
 20
0.0
 30
0.0
 70
129
 0
VERTEX
 8
TRACTOR
 6
CONTINUOUS
 62
1
 10
39405.1639687892
 20
37515.086962372
 30
0.0
 0
VERTEX
 8
TRACTOR
 6
CONTINUOUS
 62
1
 10
41166.556039353
 20
35755.0875380099
 30
0.0
 0
VERTEX
 8
TRACTOR
 6
CONTINUOUS
 62
1
 10
37561.7379412619
 20
32147.4170320358
 30
0.0
 0
VERTEX
 8
TRACTOR
 6
CONTINUOUS
 62
1
 10
35800.3458706982
 20
33907.4164563979
 30
0.0
 0
SEQEND
 0
POLYLINE
 8
TRAILER
 6
CONTINUOUS
 62
1
 66
1
 10
0.0
 20
0.0
 30
0.0
 70
129
 0
VERTEX
 8
TRAILER
 6
CONTINUOUS
 62
1
 10
37657.1249031547
 20
35909.2442796378
 30
0.0
 0
VERTEX
 8
TRAILER
 6
CONTINUOUS
 62
1
 10
39599.6878018248
 20
34351.5057313858
 30
0.0
 0
VERTEX
 8
TRAILER
 6
CONTINUOUS
 62
1
 10
31473.1722428713
 20
24217.4125371189
 30
0.0
 0
VERTEX
 8
TRAILER
 6
CONTINUOUS
 62
1
 10
29530.6093442012
 20
25775.151085371
 30
0.0
 0
SEQEND
 0
POLYLINE
 8
TRACTOR
 6
CONTINUOUS
 62
1
 66
1
 10
0.0
 20
0.0
 30
0.0
 70
129
 0
VERTEX
 8
TRACTOR
 6
CONTINUOUS
 62
1
 10
41903.0591626076
 20
40012.3934415728
 30
0.0
 0
VERTEX
 8
TRACTOR
 6
CONTINUOUS
 62
1
 10
43663.9239447481
 20
38251.8664696075
 30
0.0
 0
VERTEX
 8
TRACTOR
 6
CONTINUOUS
 62
1
 10
40058.0253274699
 20
34645.2759519702
 30
0.0
 0
VERTEX
 8
TRACTOR
 6
CONTINUOUS
 62
1
 10
38297.1605453293
 20
36405.8029239355
 30
0.0
 0
SEQEND
 0
POLYLINE
 8
TRAILER
 6
CONTINUOUS
 62
1
 66
1
 10
0.0
 20
0.0
 30
0.0
 70
129
 0
VERTEX
 8
TRAILER
 6
CONTINUOUS
 62
1
 10
40212.5577844172
 20
38418.7972392716
 30
0.0
 0
VERTEX
 8
TRAILER
 6
CONTINUOUS
 62
1
 10
42095.5679021082
 20
36789.5726087576
 30
0.0
 0
VERTEX
 8
TRAILER
 6
CONTINUOUS
 62
1
 10
33596.1189260531
 20
26966.1583803218
 30
0.0
 0
VERTEX
 8
TRAILER
 6
CONTINUOUS
 62
1
 10
31713.1088083621
 20
28595.3830108358
 30
0.0
 0
SEQEND
 0
POLYLINE
 8
TRACTOR
 6
CONTINUOUS
 62
1
 66
1
 10
0.0
 20
0.0
 30
0.0
 70
129
 0
VERTEX
 8
TRACTOR
 6
CONTINUOUS
 62
1
 10
44400.5316024695
 20
42509.7230548158
 30
0.0
 0
VERTEX
 8
TRACTOR
 6
CONTINUOUS
 62
1
 10
46161.2684579662
 20
40749.0681409568
 30
0.0
 0
VERTEX
 8
TRACTOR
 6
CONTINUOUS
 62
1
 10
42555.1077910262
 20
37142.7396417467
 30
0.0
 0
VERTEX
 8
TRACTOR
 6
CONTINUOUS
 62
1
 10
40794.3709355295
 20
38903.3945556057
 30
0.0
 0
SEQEND
 0
POLYLINE
 8
TRAILER
 6
CONTINUOUS
 62
1
 66
1
 10
0.0
 20
0.0
 30
0.0
 70
129
 0
VERTEX
 8
TRAILER
 6
CONTINUOUS
 62
1
 10
42748.6085212546
 20
40922.8309009314
 30
0.0
 0
VERTEX
 8
TRAILER
 6
CONTINUOUS
 62
1
 10
44590.8863821978
 20
39247.6854496113
 30
0.0
 0
VERTEX
 8
TRAILER
 6
CONTINUOUS
 62
1
 10
35851.8745698893
 20
29636.7660063774
 30
0.0
 0
VERTEX
 8
TRAILER
 6
CONTINUOUS
 62
1
 10
34009.596708946
 20
31311.9114576975
 30
0.0
 0
SEQEND
 0
POLYLINE
 8
TRACTOR
 6
CONTINUOUS
 62
1
 66
1
 10
0.0
 20
0.0
 30
0.0
 70
129
 0
VERTEX
 8
TRACTOR
 6
CONTINUOUS
 62
1
 10
46897.9014974249
 20
45007.0583033302
 30
0.0
 0
VERTEX
 8
TRACTOR
 6
CONTINUOUS
 62
1
 10
48658.6073207245
 20
43246.3723563768
 30
0.0
 0
VERTEX
 8
TRACTOR
 6
CONTINUOUS
 62
1
 10
45052.3830920248
 20
39640.1074170886
 30
0.0
 0
VERTEX
 8
TRACTOR
 6
CONTINUOUS
 62
1
 10
43291.6772687253
 20
41400.7933640419
 30
0.0
 0
SEQEND
 0
POLYLINE
 8
TRAILER
 6
CONTINUOUS
 62
1
 66
1
 10
0.0
 20
0.0
 30
0.0
 70
129
 0
VERTEX
 8
TRAILER
 6
CONTINUOUS
 62
1
 10
45271.566385826
 20
43424.0157646696
 30
0.0
 0
VERTEX
 8
TRAILER
 6
CONTINUOUS
 62
1
 10
47086.4041484522
 20
41719.1803194299
 30
0.0
 0
VERTEX
 8
TRAILER
 6
CONTINUOUS
 62
1
 10
38192.5035726835
 20
32251.4122324761
 30
0.0
 0
VERTEX
 8
TRAILER
 6
CONTINUOUS
 62
1
 10
36377.6658100572
 20
33956.2476777159
 30
0.0
 0
SEQEND
 0
POLYLINE
 8
TRACTOR
 6
CONTINUOUS
 62
1
 66
1
 10
0.0
 20
0.0
 30
0.0
 70
129
 0
VERTEX
 8
TRACTOR
 6
CONTINUOUS
 62
1
 10
48396.3097518324
 20
46505.460205108
 30
0.0
 0
VERTEX
 8
TRACTOR
 6
CONTINUOUS
 62
1
 10
50157.0098851891
 20
44744.7685681659
 30
0.0
 0
VERTEX
 8
TRACTOR
 6
CONTINUOUS
 62
1
 10
46550.7740022957
 20
41138.5152829775
 30
0.0
 0
VERTEX
 8
TRACTOR
 6
CONTINUOUS
 62
1
 10
44790.073868939
 20
42899.2069199196
 30
0.0
 0
SEQEND
 0
POLYLINE
 8
TRAILER
 6
CONTINUOUS
 62
1
 66
1
 10
0.0
 20
0.0
 30
0.0
 70
129
 0
VERTEX
 8
TRAILER
 6
CONTINUOUS
 62
1
 10
46780.9425727674
 20
44923.9298179423
 30
0.0
 0
VERTEX
 8
TRAILER
 6
CONTINUOUS
 62
1
 10
48583.9063821976
 20
43206.5418297798
 30
0.0
 0
VERTEX
 8
TRAILER
 6
CONTINUOUS
 62
1
 10
39624.5208535906
 20
33800.7185829934
 30
0.0
 0
VERTEX
 8
TRAILER
 6
CONTINUOUS
 62
1
 10
37821.5570441604
 20
35518.1065711559
 30
0.0
 0
SEQEND
 0
LINE
 8
FUKUIN
 6
CONTINUOUS
 62
7
 10
23997.5204383337
 20
3813.21879431725
 30
0.0
 11
23997.5204383337
 21
22688.5524209913
 31
0.0
 0
LINE
 8
FUKUIN
 6
CONTINUOUS
 62
7
 10
29246.8114888007
 20
3813.21879431725
 30
0.0
 11
29246.8114888007
 21
20514.2248750441
 31
0.0
 0
LINE
 8
FUKUIN
 6
CONTINUOUS
 62
7
 10
23997.5204383337
 20
22688.5524209913
 30
0.0
 11
50226.6893307011
 21
48917.7213133586
 31
0.0
 0
LINE
 8
FUKUIN
 6
CONTINUOUS
 62
7
 10
29246.8114888007
 20
20514.2248750441
 30
0.0
 11
53938.4986289081
 21
45205.9120151515
 31
0.0
 0
CIRCLE
 8
SENYUU
 6
CONTINUOUS
 62
7
 10
26778.2513525015
 20
21317.3261612148
 30
0.0
 40
2556.82102702537
 0
ENDSEC
 0
EOF
