 0
SECTION
 2
HEADER
 9
$ACADVER
 1
AC1009
 9
$EXTMIN
 10
0.0
 20
-0.00000000000355
 9
$EXTMAX
 10
74250.0
 20
52500.0
 9
$LIMMIN
 10
0.0
 20
-0.00000000000355
 9
$LIMMAX
 10
74250.0
 20
52500.0
 9
$LTSCALE
 40
0.25
 9
$DIMSCALE
 40
10.0
 0
ENDSEC
 0
SECTION
 2
TABLES
 0
TABLE
 2
LTYPE
 70
9
 0
LTYPE
 2
CONTINUOUS
 70
0
 3
Solid line
 72
65
 73
0
 40
0.0
 0
LTYPE
 2
DASH
 70
0
 3
DASH
 72
65
 73
2
 40
7500.0
 49
6000.0
 49
-1500.0
 0
LTYPE
 2
DASHDOT
 70
0
 3
DASHDOT
 72
65
 73
4
 40
18500.0
 49
12000.0
 49
-1500.0
 49
3500.0
 49
-1500.0
 0
LTYPE
 2
DASHDOTDOT
 70
0
 3
DASHDOTDOT
 72
65
 73
6
 40
23500.0
 49
12000.0
 49
-1500.0
 49
3500.0
 49
-1500.0
 49
3500.0
 49
-1500.0
 0
LTYPE
 2
DOT
 70
0
 3
DOT
 72
65
 73
2
 40
1750.0
 49
250.0
 49
-1500.0
 0
LTYPE
 2
DASHED1
 70
0
 3
DASHED1
 72
65
 73
2
 40
5000.0
 49
2500.0
 49
-2500.0
 0
LTYPE
 2
DASHED2
 70
0
 3
DASHED2
 72
65
 73
2
 40
2500.0
 49
1250.0
 49
-1250.0
 0
LTYPE
 2
CENTER1
 70
0
 3
CENTER1
 72
65
 73
4
 40
10000.0
 49
6250.0
 49
-1250.0
 49
1250.0
 49
-1250.0
 0
LTYPE
 2
CENTER2
 70
0
 3
CENTER2
 72
65
 73
6
 40
9500.0
 49
3250.0
 49
-1250.0
 49
1250.0
 49
-1250.0
 49
1250.0
 49
-1250.0
 0
ENDTAB
 0
TABLE
 2
LAYER
 70
10
 0
LAYER
 2
SYSLAYER
 70
0
 62
7
 6
CONTINUOUS
 0
LAYER
 2
SYSLAYER_RST
 70
0
 62
7
 6
CONTINUOUS
 0
LAYER
 2
FUKUIN
 70
0
 62
7
 6
CONTINUOUS
 0
LAYER
 2
TRACTOR
 70
0
 62
1
 6
CONTINUOUS
 0
LAYER
 2
TRAILER
 70
0
 62
1
 6
CONTINUOUS
 0
LAYER
 2
CAR_HATA
 70
0
 62
7
 6
CONTINUOUS
 0
LAYER
 2
SENYUU
 70
0
 62
7
 6
CONTINUOUS
 0
LAYER
 2
HYOU
 70
0
 62
7
 6
CONTINUOUS
 0
LAYER
 2
TRAILER2
 70
0
 62
1
 6
CONTINUOUS
 0
LAYER
 2
TRAILER3
 70
0
 62
1
 6
CONTINUOUS
 0
ENDTAB
 0
TABLE
 2
STYLE
 70
4
 0
STYLE
 2
MTC_FONT0
 70
0
 40
0.0
 41
1.0
 50
0.0
 71
0
 42
752.5
 3
MONOTXT
 4
EXTFONT
 0
STYLE
 2
MTC_FONT1
 70
0
 40
0.0
 41
1.0
 50
0.0
 71
0
 42
752.5
 3
MONOTXT
 4
EXTFONT
 0
STYLE
 2
MTC_FONT2
 70
0
 40
0.0
 41
0.5
 50
0.0
 71
0
 42
2.14999995194376
 3
MONOTXT
 4
EXTFONT
 0
STYLE
 2
MTC_FONT3
 70
0
 40
0.0
 41
1.0
 50
0.0
 71
0
 42
0.0
 3
MONOTXT
 4
EXTFONT
 0
ENDTAB
 0
TABLE
 2
DIMSTYLE
 70
0
 0
ENDTAB
 0
ENDSEC
 0
SECTION
 2
BLOCKS
 0
BLOCK
 8
0
 2
MTC_ARROW_NONE
 70
0
 10
0.0
 20
0.0
 30
0.0
 3
MTC_ARROW_NONE
 0
ENDBLK
 8
0
 0
ENDSEC
 0
SECTION
 2
ENTITIES
 0
TEXT
 8
HYOU
 62
7
 10
47500.0
 20
24140.0
 30
0
 11
47500.0
 21
25000.0
 31
0
 40
860.0
 1
タイトル         軌跡図
 41
0.5
 50
0.0
 51
0.0
 7
MTC_FONT2
 72
0
 73
3
 0
TEXT
 8
HYOU
 62
7
 10
47500.0
 20
22890.0
 30
0
 11
47500.0
 21
23750.0
 31
0
 40
860.0
 1
車両名           倉庫用軌跡図
 41
0.5
 50
0.0
 51
0.0
 7
MTC_FONT2
 72
0
 73
3
 0
TEXT
 8
HYOU
 62
7
 10
47500.0
 20
21640.0
 30
0
 11
47500.0
 21
22500.0
 31
0
 40
860.0
 1
車種             セミトレーラ
 41
0.5
 50
0.0
 51
0.0
 7
MTC_FONT2
 72
0
 73
3
 0
TEXT
 8
HYOU
 62
7
 10
47500.0
 20
20390.0
 30
0
 11
47500.0
 21
21250.0
 31
0
 40
860.0
 1
全長             15220mm
 41
0.5
 50
0.0
 51
0.0
 7
MTC_FONT2
 72
0
 73
3
 0
TEXT
 8
HYOU
 62
7
 10
47500.0
 20
19140.0
 30
0
 11
47500.0
 21
20000.0
 31
0
 40
860.0
 1
車幅             2490mm
 41
0.5
 50
0.0
 51
0.0
 7
MTC_FONT2
 72
0
 73
3
 0
TEXT
 8
HYOU
 62
7
 10
47500.0
 20
17890.0
 30
0
 11
47500.0
 21
18750.0
 31
0
 40
860.0
 1
最小回転半径     9000mm
 41
0.5
 50
0.0
 51
0.0
 7
MTC_FONT2
 72
0
 73
3
 0
TEXT
 8
HYOU
 62
7
 10
47500.0
 20
16640.0
 30
0
 11
47500.0
 21
17500.0
 31
0
 40
860.0
 1
連結最小回転半径 10030mm  JASO Z 107-04
 41
0.5
 50
0.0
 51
0.0
 7
MTC_FONT2
 72
0
 73
3
 0
TEXT
 8
HYOU
 62
7
 10
47500.0
 20
15390.0
 30
0
 11
47500.0
 21
16250.0
 31
0
 40
860.0
 1
所要道路幅       5000 (4997)mm
 41
0.5
 50
0.0
 51
0.0
 7
MTC_FONT2
 72
0
 73
3
 0
TEXT
 8
HYOU
 62
7
 10
47500.0
 20
14140.0
 30
0
 11
47500.0
 21
15000.0
 31
0
 40
860.0
 1
所要占有幅       5000 (4928)mm
 41
0.5
 50
0.0
 51
0.0
 7
MTC_FONT2
 72
0
 73
3
 0
TEXT
 8
HYOU
 62
7
 10
47500.0
 20
12890.0
 30
0
 11
47500.0
 21
13750.0
 31
0
 40
860.0
 1
旋回方向         右旋回
 41
0.5
 50
0.0
 51
0.0
 7
MTC_FONT2
 72
0
 73
3
 0
TEXT
 8
HYOU
 62
7
 10
47500.0
 20
11640.0
 30
0
 11
47500.0
 21
12500.0
 31
0
 40
860.0
 1
旋回角度         40.000度
 41
0.5
 50
0.0
 51
0.0
 7
MTC_FONT2
 72
0
 73
3
 0
TEXT
 8
HYOU
 62
7
 10
47500.0
 20
10390.0
 30
0
 11
47500.0
 21
11250.0
 31
0
 40
860.0
 1
スケール         1/250
 41
0.5
 50
0.0
 51
0.0
 7
MTC_FONT2
 72
0
 73
3
 0
TEXT
 8
HYOU
 62
7
 10
47500.0
 20
9140.0
 30
0
 11
47500.0
 21
10000.0
 31
0
 40
860.0
 1
作図方法         JASO Z 006 プロッタ法
 41
0.5
 50
0.0
 51
0.0
 7
MTC_FONT2
 72
0
 73
3
 0
TEXT
 8
HYOU
 62
7
 10
47500.0
 20
7890.0
 30
0
 11
47500.0
 21
8750.0
 31
0
 40
860.0
 1
  刻み角         5度
 41
0.5
 50
0.0
 51
0.0
 7
MTC_FONT2
 72
0
 73
3
 0
TEXT
 8
HYOU
 62
7
 10
47500.0
 20
6640.0
 30
0
 11
47500.0
 21
7500.0
 31
0
 40
860.0
 1
  表示間隔       5
 41
0.5
 50
0.0
 51
0.0
 7
MTC_FONT2
 72
0
 73
3
 0
LINE
 8
CAR_HATA
 6
CONTINUOUS
 62
7
 10
26853.5586078877
 20
21351.3446389979
 30
0.0
 11
21608.5586078877
 21
21351.3446389979
 31
0.0
 0
LINE
 8
CAR_HATA
 6
CONTINUOUS
 62
7
 10
26853.5586078877
 20
6131.34463899786
 30
0.0
 11
21608.5586078877
 21
6131.34463899786
 31
0.0
 0
LINE
 8
CAR_HATA
 6
CONTINUOUS
 62
7
 10
21608.5586078877
 20
6131.34463899786
 30
0.0
 11
21608.5586078877
 21
21351.3446389979
 31
0.0
 0
LINE
 8
CAR_HATA
 6
CONTINUOUS
 62
7
 10
21608.5586078877
 20
6131.34463899786
 30
0.0
 11
21377.6185002119
 21
6531.34463899786
 31
0.0
 0
LINE
 8
CAR_HATA
 6
CONTINUOUS
 62
7
 10
21608.5586078877
 20
6131.34463899786
 30
0.0
 11
21839.4987155636
 21
6531.34463899786
 31
0.0
 0
LINE
 8
CAR_HATA
 6
CONTINUOUS
 62
7
 10
21608.5586078877
 20
21351.3446389979
 30
0.0
 11
21377.6185002119
 21
20951.3446389979
 31
0.0
 0
LINE
 8
CAR_HATA
 6
CONTINUOUS
 62
7
 10
21608.5586078877
 20
21351.3446389979
 30
0.0
 11
21839.4987155636
 21
20951.3446389979
 31
0.0
 0
TEXT
 8
CAR_HATA
 62
7
 10
21538.5586078877
 20
13203.8446389979
 30
0
 11
21608.5586078877
 21
13741.3446389979
 31
0
 40
430.0
 1
15220
 41
0.5
 50
90.0
 51
0.0
 7
MTC_FONT2
 72
1
 73
1
 0
LINE
 8
CAR_HATA
 6
CONTINUOUS
 62
7
 10
26853.5586078877
 20
21351.3446389979
 30
0.0
 11
22608.5586078877
 21
21351.3446389979
 31
0.0
 0
LINE
 8
CAR_HATA
 6
CONTINUOUS
 62
7
 10
26853.5586078877
 20
19961.3446389979
 30
0.0
 11
22608.5586078877
 21
19961.3446389979
 31
0.0
 0
LINE
 8
CAR_HATA
 6
CONTINUOUS
 62
7
 10
22608.5586078877
 20
19961.3446389979
 30
0.0
 11
22608.5586078877
 21
21351.3446389979
 31
0.0
 0
LINE
 8
CAR_HATA
 6
CONTINUOUS
 62
7
 10
22608.5586078877
 20
19961.3446389979
 30
0.0
 11
22377.6185002119
 21
20361.3446389979
 31
0.0
 0
LINE
 8
CAR_HATA
 6
CONTINUOUS
 62
7
 10
22608.5586078877
 20
19961.3446389979
 30
0.0
 11
22839.4987155636
 21
20361.3446389979
 31
0.0
 0
LINE
 8
CAR_HATA
 6
CONTINUOUS
 62
7
 10
22608.5586078877
 20
21351.3446389979
 30
0.0
 11
22377.6185002119
 21
20951.3446389979
 31
0.0
 0
LINE
 8
CAR_HATA
 6
CONTINUOUS
 62
7
 10
22608.5586078877
 20
21351.3446389979
 30
0.0
 11
22839.4987155636
 21
20951.3446389979
 31
0.0
 0
TEXT
 8
CAR_HATA
 62
7
 10
22538.5586078877
 20
20226.3446389979
 30
0
 11
22608.5586078877
 21
20656.3446389979
 31
0
 40
430.0
 1
1390
 41
0.5
 50
90.0
 51
0.0
 7
MTC_FONT2
 72
1
 73
1
 0
LINE
 8
CAR_HATA
 6
CONTINUOUS
 62
7
 10
26853.5586078877
 20
19961.3446389979
 30
0.0
 11
22608.5586078877
 21
19961.3446389979
 31
0.0
 0
LINE
 8
CAR_HATA
 6
CONTINUOUS
 62
7
 10
26853.5586078877
 20
17451.3446389979
 30
0.0
 11
22608.5586078877
 21
17451.3446389979
 31
0.0
 0
LINE
 8
CAR_HATA
 6
CONTINUOUS
 62
7
 10
22608.5586078877
 20
17451.3446389979
 30
0.0
 11
22608.5586078877
 21
19961.3446389979
 31
0.0
 0
LINE
 8
CAR_HATA
 6
CONTINUOUS
 62
7
 10
22608.5586078877
 20
17451.3446389979
 30
0.0
 11
22377.6185002119
 21
17851.3446389979
 31
0.0
 0
LINE
 8
CAR_HATA
 6
CONTINUOUS
 62
7
 10
22608.5586078877
 20
17451.3446389979
 30
0.0
 11
22839.4987155636
 21
17851.3446389979
 31
0.0
 0
LINE
 8
CAR_HATA
 6
CONTINUOUS
 62
7
 10
22608.5586078877
 20
19961.3446389979
 30
0.0
 11
22377.6185002119
 21
19561.3446389979
 31
0.0
 0
LINE
 8
CAR_HATA
 6
CONTINUOUS
 62
7
 10
22608.5586078877
 20
19961.3446389979
 30
0.0
 11
22839.4987155636
 21
19561.3446389979
 31
0.0
 0
TEXT
 8
CAR_HATA
 62
7
 10
22538.5586078877
 20
18276.3446389979
 30
0
 11
22608.5586078877
 21
18706.3446389979
 31
0
 40
430.0
 1
2510
 41
0.5
 50
90.0
 51
0.0
 7
MTC_FONT2
 72
1
 73
1
 0
LINE
 8
CAR_HATA
 6
CONTINUOUS
 62
7
 10
26853.5586078877
 20
17451.3446389979
 30
0.0
 11
22608.5586078877
 21
17451.3446389979
 31
0.0
 0
LINE
 8
CAR_HATA
 6
CONTINUOUS
 62
7
 10
26853.5586078877
 20
16251.3446389979
 30
0.0
 11
22608.5586078877
 21
16251.3446389979
 31
0.0
 0
LINE
 8
CAR_HATA
 6
CONTINUOUS
 62
7
 10
22608.5586078877
 20
16251.3446389979
 30
0.0
 11
22608.5586078877
 21
17451.3446389979
 31
0.0
 0
LINE
 8
CAR_HATA
 6
CONTINUOUS
 62
7
 10
22608.5586078877
 20
16251.3446389979
 30
0.0
 11
22377.6185002119
 21
16651.3446389979
 31
0.0
 0
LINE
 8
CAR_HATA
 6
CONTINUOUS
 62
7
 10
22608.5586078877
 20
16251.3446389979
 30
0.0
 11
22839.4987155636
 21
16651.3446389979
 31
0.0
 0
LINE
 8
CAR_HATA
 6
CONTINUOUS
 62
7
 10
22608.5586078877
 20
17451.3446389979
 30
0.0
 11
22377.6185002119
 21
17051.3446389979
 31
0.0
 0
LINE
 8
CAR_HATA
 6
CONTINUOUS
 62
7
 10
22608.5586078877
 20
17451.3446389979
 30
0.0
 11
22839.4987155636
 21
17051.3446389979
 31
0.0
 0
TEXT
 8
CAR_HATA
 62
7
 10
22538.5586078877
 20
16421.3446389979
 30
0
 11
22608.5586078877
 21
16851.3446389979
 31
0
 40
430.0
 1
1200
 41
0.5
 50
90.0
 51
0.0
 7
MTC_FONT2
 72
1
 73
1
 0
LINE
 8
CAR_HATA
 6
CONTINUOUS
 62
7
 10
26853.5586078877
 20
18121.3446389979
 30
0.0
 11
23608.5586078877
 21
18121.3446389979
 31
0.0
 0
LINE
 8
CAR_HATA
 6
CONTINUOUS
 62
7
 10
26853.5586078877
 20
17451.3446389979
 30
0.0
 11
23608.5586078877
 21
17451.3446389979
 31
0.0
 0
LINE
 8
CAR_HATA
 6
CONTINUOUS
 62
7
 10
23608.5586078877
 20
17451.3446389979
 30
0.0
 11
23608.5586078877
 21
18121.3446389979
 31
0.0
 0
LINE
 8
CAR_HATA
 6
CONTINUOUS
 62
7
 10
23608.5586078877
 20
18121.3446389979
 30
0.0
 11
23608.5586078877
 21
19121.3446389979
 31
0.0
 0
LINE
 8
CAR_HATA
 6
CONTINUOUS
 62
7
 10
23608.5586078877
 20
18121.3446389979
 30
0.0
 11
23377.6185002119
 21
18521.3446389979
 31
0.0
 0
LINE
 8
CAR_HATA
 6
CONTINUOUS
 62
7
 10
23608.5586078877
 20
18121.3446389979
 30
0.0
 11
23839.4987155636
 21
18521.3446389979
 31
0.0
 0
TEXT
 8
CAR_HATA
 62
7
 10
23538.5586078877
 20
18476.3446389979
 30
0
 11
23608.5586078877
 21
19121.3446389979
 31
0
 40
430.0
 1
670
 41
0.5
 50
90.0
 51
0.0
 7
MTC_FONT2
 72
2
 73
1
 0
LINE
 8
CAR_HATA
 6
CONTINUOUS
 62
7
 10
23608.5586078877
 20
16451.3446389979
 30
0.0
 11
23608.5586078877
 21
17451.3446389979
 31
0.0
 0
LINE
 8
CAR_HATA
 6
CONTINUOUS
 62
7
 10
23608.5586078877
 20
17451.3446389979
 30
0.0
 11
23377.6185002119
 21
17051.3446389979
 31
0.0
 0
LINE
 8
CAR_HATA
 6
CONTINUOUS
 62
7
 10
23608.5586078877
 20
17451.3446389979
 30
0.0
 11
23839.4987155636
 21
17051.3446389979
 31
0.0
 0
LINE
 8
CAR_HATA
 6
CONTINUOUS
 62
7
 10
26853.5586078877
 20
9681.34463899786
 30
0.0
 11
24608.5586078877
 21
9681.34463899786
 31
0.0
 0
LINE
 8
CAR_HATA
 6
CONTINUOUS
 62
7
 10
26853.5586078877
 20
6131.34463899786
 30
0.0
 11
24608.5586078877
 21
6131.34463899786
 31
0.0
 0
LINE
 8
CAR_HATA
 6
CONTINUOUS
 62
7
 10
24608.5586078877
 20
6131.34463899786
 30
0.0
 11
24608.5586078877
 21
9681.34463899786
 31
0.0
 0
LINE
 8
CAR_HATA
 6
CONTINUOUS
 62
7
 10
24608.5586078877
 20
6131.34463899786
 30
0.0
 11
24377.6185002119
 21
6531.34463899786
 31
0.0
 0
LINE
 8
CAR_HATA
 6
CONTINUOUS
 62
7
 10
24608.5586078877
 20
6131.34463899786
 30
0.0
 11
24839.4987155636
 21
6531.34463899786
 31
0.0
 0
LINE
 8
CAR_HATA
 6
CONTINUOUS
 62
7
 10
24608.5586078877
 20
9681.34463899786
 30
0.0
 11
24377.6185002119
 21
9281.34463899786
 31
0.0
 0
LINE
 8
CAR_HATA
 6
CONTINUOUS
 62
7
 10
24608.5586078877
 20
9681.34463899786
 30
0.0
 11
24839.4987155636
 21
9281.34463899786
 31
0.0
 0
TEXT
 8
CAR_HATA
 62
7
 10
24538.5586078877
 20
7476.34463899786
 30
0
 11
24608.5586078877
 21
7906.34463899786
 31
0
 40
430.0
 1
3550
 41
0.5
 50
90.0
 51
0.0
 7
MTC_FONT2
 72
1
 73
1
 0
LINE
 8
CAR_HATA
 6
CONTINUOUS
 62
7
 10
26853.5586078877
 20
18121.3446389979
 30
0.0
 11
24608.5586078877
 21
18121.3446389979
 31
0.0
 0
LINE
 8
CAR_HATA
 6
CONTINUOUS
 62
7
 10
26853.5586078877
 20
9681.34463899786
 30
0.0
 11
24608.5586078877
 21
9681.34463899786
 31
0.0
 0
LINE
 8
CAR_HATA
 6
CONTINUOUS
 62
7
 10
24608.5586078877
 20
9681.34463899786
 30
0.0
 11
24608.5586078877
 21
18121.3446389979
 31
0.0
 0
LINE
 8
CAR_HATA
 6
CONTINUOUS
 62
7
 10
24608.5586078877
 20
9681.34463899786
 30
0.0
 11
24377.6185002119
 21
10081.3446389979
 31
0.0
 0
LINE
 8
CAR_HATA
 6
CONTINUOUS
 62
7
 10
24608.5586078877
 20
9681.34463899786
 30
0.0
 11
24839.4987155636
 21
10081.3446389979
 31
0.0
 0
LINE
 8
CAR_HATA
 6
CONTINUOUS
 62
7
 10
24608.5586078877
 20
18121.3446389979
 30
0.0
 11
24377.6185002119
 21
17721.3446389979
 31
0.0
 0
LINE
 8
CAR_HATA
 6
CONTINUOUS
 62
7
 10
24608.5586078877
 20
18121.3446389979
 30
0.0
 11
24839.4987155636
 21
17721.3446389979
 31
0.0
 0
TEXT
 8
CAR_HATA
 62
7
 10
24538.5586078877
 20
13471.3446389979
 30
0
 11
24608.5586078877
 21
13901.3446389979
 31
0
 40
430.0
 1
8440
 41
0.5
 50
90.0
 51
0.0
 7
MTC_FONT2
 72
1
 73
1
 0
LINE
 8
CAR_HATA
 6
CONTINUOUS
 62
7
 10
26853.5586078877
 20
19121.3446389979
 30
0.0
 11
24608.5586078877
 21
19121.3446389979
 31
0.0
 0
LINE
 8
CAR_HATA
 6
CONTINUOUS
 62
7
 10
26853.5586078877
 20
18121.3446389979
 30
0.0
 11
24608.5586078877
 21
18121.3446389979
 31
0.0
 0
LINE
 8
CAR_HATA
 6
CONTINUOUS
 62
7
 10
24608.5586078877
 20
18121.3446389979
 30
0.0
 11
24608.5586078877
 21
19121.3446389979
 31
0.0
 0
LINE
 8
CAR_HATA
 6
CONTINUOUS
 62
7
 10
24608.5586078877
 20
19121.3446389979
 30
0.0
 11
24608.5586078877
 21
20121.3446389979
 31
0.0
 0
LINE
 8
CAR_HATA
 6
CONTINUOUS
 62
7
 10
24608.5586078877
 20
19121.3446389979
 30
0.0
 11
24377.6185002119
 21
19521.3446389979
 31
0.0
 0
LINE
 8
CAR_HATA
 6
CONTINUOUS
 62
7
 10
24608.5586078877
 20
19121.3446389979
 30
0.0
 11
24839.4987155636
 21
19521.3446389979
 31
0.0
 0
TEXT
 8
CAR_HATA
 62
7
 10
24538.5586078877
 20
19261.3446389979
 30
0
 11
24608.5586078877
 21
20121.3446389979
 31
0
 40
430.0
 1
1000
 41
0.5
 50
90.0
 51
0.0
 7
MTC_FONT2
 72
2
 73
1
 0
LINE
 8
CAR_HATA
 6
CONTINUOUS
 62
7
 10
25608.5586078877
 20
6131.34463899786
 30
0.0
 11
25608.5586078877
 21
5131.34463899786
 31
0.0
 0
LINE
 8
CAR_HATA
 6
CONTINUOUS
 62
7
 10
28098.5586078877
 20
6131.34463899786
 30
0.0
 11
28098.5586078877
 21
5131.34463899786
 31
0.0
 0
LINE
 8
CAR_HATA
 6
CONTINUOUS
 62
7
 10
25608.5586078877
 20
5131.34463899786
 30
0.0
 11
28098.5586078877
 21
5131.34463899786
 31
0.0
 0
LINE
 8
CAR_HATA
 6
CONTINUOUS
 62
7
 10
25608.5586078877
 20
5131.34463899786
 30
0.0
 11
26008.5586078877
 21
5362.28474667371
 31
0.0
 0
LINE
 8
CAR_HATA
 6
CONTINUOUS
 62
7
 10
25608.5586078877
 20
5131.34463899786
 30
0.0
 11
26008.5586078877
 21
4900.404531322
 31
0.0
 0
LINE
 8
CAR_HATA
 6
CONTINUOUS
 62
7
 10
28098.5586078877
 20
5131.34463899786
 30
0.0
 11
27698.5586078877
 21
5362.28474667371
 31
0.0
 0
LINE
 8
CAR_HATA
 6
CONTINUOUS
 62
7
 10
28098.5586078877
 20
5131.34463899786
 30
0.0
 11
27698.5586078877
 21
4900.404531322
 31
0.0
 0
TEXT
 8
CAR_HATA
 62
7
 10
26423.5586078877
 20
5201.34463899786
 30
0
 11
26853.5586078877
 21
5131.34463899786
 31
0
 40
430.0
 1
2490
 41
0.5
 50
0.0
 51
0.0
 7
MTC_FONT2
 72
1
 73
1
 0
LINE
 8
CAR_HATA
 6
CONTINUOUS
 62
7
 10
25908.5586078877
 20
19961.3446389979
 30
0.0
 11
34551.4689973341
 21
17451.3446389979
 31
0.0
 0
LINE
 8
CAR_HATA
 6
CONTINUOUS
 62
7
 10
25908.5586078877
 20
19961.3446389979
 30
0.0
 11
26357.0945885594
 21
20071.5662674391
 31
0.0
 0
LINE
 8
CAR_HATA
 6
CONTINUOUS
 62
7
 10
25908.5586078877
 20
19961.3446389979
 30
0.0
 11
26228.2813285002
 21
19628.0118994455
 31
0.0
 0
TEXT
 8
CAR_HATA
 62
7
 10
33332.1740637357
 20
17878.3339420269
 30
0
 11
34551.4689973341
 21
17451.3446389979
 31
0
 40
430.0
 1
R=9000
 41
0.5
 50
343.806098676741
 51
0.0
 7
MTC_FONT2
 72
2
 73
1
 0
ARC
 8
CAR_HATA
 6
CONTINUOUS
 62
7
 10
34551.4689973341
 20
17451.3446389979
 30
0.0
 40
9000.0
 50
153.806098676741
 51
168.806098676741
 0
LINE
 8
CAR_HATA
 6
CONTINUOUS
 62
7
 10
25668.6404283687
 20
21486.31711078
 30
0.0
 11
30155.0200434075
 21
19448.4056387639
 31
0.0
 0
LINE
 8
CAR_HATA
 6
CONTINUOUS
 62
7
 10
25668.6404283687
 20
21486.31711078
 30
0.0
 11
26128.3395315899
 21
21531.1508908005
 31
0.0
 0
LINE
 8
CAR_HATA
 6
CONTINUOUS
 62
7
 10
25668.6404283687
 20
21486.31711078
 30
0.0
 11
25937.3171724248
 21
21110.6228993037
 31
0.0
 0
LINE
 8
CAR_HATA
 6
CONTINUOUS
 62
7
 10
30155.0200434075
 20
19448.4056387639
 30
0.0
 11
29886.3432993515
 21
19824.0998502402
 31
0.0
 0
LINE
 8
CAR_HATA
 6
CONTINUOUS
 62
7
 10
30155.0200434075
 20
19448.4056387639
 30
0.0
 11
29695.3209401863
 21
19403.5718587434
 31
0.0
 0
LINE
 8
CAR_HATA
 6
CONTINUOUS
 62
7
 10
23847.7008101754
 20
22313.4681894192
 30
0.0
 11
25668.6404283687
 21
21486.31711078
 31
0.0
 0
TEXT
 8
CAR_HATA
 62
7
 10
23876.6510979278
 20
22377.201076056
 30
0
 11
23847.7008101754
 21
22313.4681894192
 31
0
 40
430.0
 1
5000
 41
0.5
 50
335.570356605744
 51
0.0
 7
MTC_FONT2
 72
0
 73
1
 0
LINE
 8
CAR_HATA
 6
CONTINUOUS
 62
7
 10
25333.1397305948
 20
3131.34463899786
 30
0.0
 11
30329.2968405115
 21
3131.34463899786
 31
0.0
 0
LINE
 8
CAR_HATA
 6
CONTINUOUS
 62
7
 10
25333.1397305948
 20
3131.34463899786
 30
0.0
 11
25733.1397305948
 21
3362.28474667371
 31
0.0
 0
LINE
 8
CAR_HATA
 6
CONTINUOUS
 62
7
 10
25333.1397305948
 20
3131.34463899786
 30
0.0
 11
25733.1397305948
 21
2900.40453132201
 31
0.0
 0
LINE
 8
CAR_HATA
 6
CONTINUOUS
 62
7
 10
30329.2968405115
 20
3131.34463899786
 30
0.0
 11
29929.2968405115
 21
3362.2847466737
 31
0.0
 0
LINE
 8
CAR_HATA
 6
CONTINUOUS
 62
7
 10
30329.2968405115
 20
3131.34463899786
 30
0.0
 11
29929.2968405115
 21
2900.40453132201
 31
0.0
 0
TEXT
 8
CAR_HATA
 62
7
 10
27401.2182855532
 20
3201.34463899786
 30
0
 11
27831.2182855532
 21
3131.34463899786
 31
0
 40
430.0
 1
5000
 41
0.5
 50
360.0
 51
0.0
 7
MTC_FONT2
 72
1
 73
1
 0
LINE
 8
CAR_HATA
 6
CONTINUOUS
 62
7
 10
52622.3814997881
 20
46388.1275823762
 30
0.0
 11
48795.1031087871
 21
49599.595468678
 31
0.0
 0
LINE
 8
CAR_HATA
 6
CONTINUOUS
 62
7
 10
52622.3814997881
 20
46388.1275823762
 30
0.0
 11
52167.5182827468
 21
46468.3322400725
 31
0.0
 0
LINE
 8
CAR_HATA
 6
CONTINUOUS
 62
7
 10
52622.3814997881
 20
46388.1275823762
 30
0.0
 11
52464.4091623342
 21
46822.1530124292
 31
0.0
 0
LINE
 8
CAR_HATA
 6
CONTINUOUS
 62
7
 10
48795.1031087871
 20
49599.595468678
 30
0.0
 11
48953.0754462409
 21
49165.570038625
 31
0.0
 0
LINE
 8
CAR_HATA
 6
CONTINUOUS
 62
7
 10
48795.1031087871
 20
49599.595468678
 30
0.0
 11
49249.9663258284
 21
49519.3908109818
 31
0.0
 0
TEXT
 8
CAR_HATA
 62
7
 10
50993.1462821507
 20
47663.8397423436
 30
0
 11
50708.7423042876
 21
47993.8615255271
 31
0
 40
430.0
 1
5000
 41
0.5
 50
140.0
 51
0.0
 7
MTC_FONT2
 72
1
 73
1
 0
POLYLINE
 8
TRACTOR
 6
CONTINUOUS
 62
1
 66
1
 10
0.0
 20
0.0
 30
0.0
 70
129
 0
VERTEX
 8
TRACTOR
 6
CONTINUOUS
 62
1
 10
25608.5586078877
 20
21351.3446389979
 30
0.0
 0
VERTEX
 8
TRACTOR
 6
CONTINUOUS
 62
1
 10
28098.5586078877
 20
21351.3446389979
 30
0.0
 0
VERTEX
 8
TRACTOR
 6
CONTINUOUS
 62
1
 10
28098.5586078877
 20
16251.3446389979
 30
0.0
 0
VERTEX
 8
TRACTOR
 6
CONTINUOUS
 62
1
 10
25608.5586078877
 20
16251.3446389979
 30
0.0
 0
SEQEND
 0
POLYLINE
 8
TRAILER
 6
CONTINUOUS
 62
1
 66
1
 10
0.0
 20
0.0
 30
0.0
 70
129
 0
VERTEX
 8
TRAILER
 6
CONTINUOUS
 62
1
 10
25608.5586078877
 20
19121.3446389979
 30
0.0
 0
VERTEX
 8
TRAILER
 6
CONTINUOUS
 62
1
 10
28098.5586078877
 20
19121.3446389979
 30
0.0
 0
VERTEX
 8
TRAILER
 6
CONTINUOUS
 62
1
 10
28098.5586078877
 20
6131.34463899786
 30
0.0
 0
VERTEX
 8
TRAILER
 6
CONTINUOUS
 62
1
 10
25608.5586078877
 20
6131.34463899786
 30
0.0
 0
SEQEND
 0
POLYLINE
 8
TRACTOR
 6
CONTINUOUS
 62
1
 66
1
 10
0.0
 20
0.0
 30
0.0
 70
129
 0
VERTEX
 8
TRACTOR
 6
CONTINUOUS
 62
1
 10
27481.7606549918
 20
24174.80135321
 30
0.0
 0
VERTEX
 8
TRACTOR
 6
CONTINUOUS
 62
1
 10
29821.5952807487
 20
23323.171196329
 30
0.0
 0
VERTEX
 8
TRACTOR
 6
CONTINUOUS
 62
1
 10
28077.2925497878
 20
18530.7388303209
 30
0.0
 0
VERTEX
 8
TRACTOR
 6
CONTINUOUS
 62
1
 10
25737.4579240309
 20
19382.3689872018
 30
0.0
 0
SEQEND
 0
POLYLINE
 8
TRAILER
 6
CONTINUOUS
 62
1
 66
1
 10
0.0
 20
0.0
 30
0.0
 70
129
 0
VERTEX
 8
TRAILER
 6
CONTINUOUS
 62
1
 10
26378.2961759229
 20
21802.0191795376
 30
0.0
 0
VERTEX
 8
TRAILER
 6
CONTINUOUS
 62
1
 10
28861.6491104317
 20
21620.2000312977
 30
0.0
 0
VERTEX
 8
TRAILER
 6
CONTINUOUS
 62
1
 10
27913.1227105777
 20
8664.87689102907
 30
0.0
 0
VERTEX
 8
TRAILER
 6
CONTINUOUS
 62
1
 10
25429.7697760689
 20
8846.69603926899
 30
0.0
 0
SEQEND
 0
POLYLINE
 8
TRACTOR
 6
CONTINUOUS
 62
1
 66
1
 10
0.0
 20
0.0
 30
0.0
 70
129
 0
VERTEX
 8
TRACTOR
 6
CONTINUOUS
 62
1
 10
30222.6527111252
 20
27004.2830129039
 30
0.0
 0
VERTEX
 8
TRACTOR
 6
CONTINUOUS
 62
1
 10
32260.530605631
 20
25573.4952274219
 30
0.0
 0
VERTEX
 8
TRACTOR
 6
CONTINUOUS
 62
1
 10
29330.001406451
 20
21399.5284555425
 30
0.0
 0
VERTEX
 8
TRACTOR
 6
CONTINUOUS
 62
1
 10
27292.1235119452
 20
22830.3162410245
 30
0.0
 0
SEQEND
 0
POLYLINE
 8
TRAILER
 6
CONTINUOUS
 62
1
 66
1
 10
0.0
 20
0.0
 30
0.0
 70
129
 0
VERTEX
 8
TRAILER
 6
CONTINUOUS
 62
1
 10
28408.2383039762
 20
24908.2343015766
 30
0.0
 0
VERTEX
 8
TRAILER
 6
CONTINUOUS
 62
1
 10
30829.5297447031
 20
24327.3317632255
 30
0.0
 0
VERTEX
 8
TRAILER
 6
CONTINUOUS
 62
1
 10
27799.0381892086
 20
11695.7752109998
 30
0.0
 0
VERTEX
 8
TRAILER
 6
CONTINUOUS
 62
1
 10
25377.7467484817
 20
12276.6777493509
 30
0.0
 0
SEQEND
 0
POLYLINE
 8
TRACTOR
 6
CONTINUOUS
 62
1
 66
1
 10
0.0
 20
0.0
 30
0.0
 70
129
 0
VERTEX
 8
TRACTOR
 6
CONTINUOUS
 62
1
 10
32613.8915234971
 20
29720.1783419382
 30
0.0
 0
VERTEX
 8
TRACTOR
 6
CONTINUOUS
 62
1
 10
34554.3320861676
 20
28159.7968428351
 30
0.0
 0
VERTEX
 8
TRACTOR
 6
CONTINUOUS
 62
1
 10
31358.3699795709
 20
24185.4005096547
 30
0.0
 0
VERTEX
 8
TRACTOR
 6
CONTINUOUS
 62
1
 10
29417.9294169004
 20
25745.7820087578
 30
0.0
 0
SEQEND
 0
POLYLINE
 8
TRAILER
 6
CONTINUOUS
 62
1
 66
1
 10
0.0
 20
0.0
 30
0.0
 70
129
 0
VERTEX
 8
TRAILER
 6
CONTINUOUS
 62
1
 10
30774.81376142
 20
27813.3747478116
 30
0.0
 0
VERTEX
 8
TRAILER
 6
CONTINUOUS
 62
1
 10
33087.1366964876
 20
26889.6525796461
 30
0.0
 0
VERTEX
 8
TRAILER
 6
CONTINUOUS
 62
1
 10
28268.2005661785
 20
14826.5702798356
 30
0.0
 0
VERTEX
 8
TRAILER
 6
CONTINUOUS
 62
1
 10
25955.8776311109
 20
15750.2924480011
 30
0.0
 0
SEQEND
 0
POLYLINE
 8
TRACTOR
 6
CONTINUOUS
 62
1
 66
1
 10
0.0
 20
0.0
 30
0.0
 70
129
 0
VERTEX
 8
TRACTOR
 6
CONTINUOUS
 62
1
 10
34913.5390922044
 20
32427.0043496777
 30
0.0
 0
VERTEX
 8
TRACTOR
 6
CONTINUOUS
 62
1
 10
36829.0691872356
 20
30836.1415476016
 30
0.0
 0
VERTEX
 8
TRACTOR
 6
CONTINUOUS
 62
1
 10
33570.6754962363
 20
26912.7666541641
 30
0.0
 0
VERTEX
 8
TRACTOR
 6
CONTINUOUS
 62
1
 10
31655.145401205
 20
28503.6294562402
 30
0.0
 0
SEQEND
 0
POLYLINE
 8
TRAILER
 6
CONTINUOUS
 62
1
 66
1
 10
0.0
 20
0.0
 30
0.0
 70
129
 0
VERTEX
 8
TRAILER
 6
CONTINUOUS
 62
1
 10
33172.8040186928
 20
30612.0297418717
 30
0.0
 0
VERTEX
 8
TRAILER
 6
CONTINUOUS
 62
1
 10
35375.3584223399
 20
29450.6279599829
 30
0.0
 0
VERTEX
 8
TRAILER
 6
CONTINUOUS
 62
1
 10
29316.479246944
 20
17960.1935409562
 30
0.0
 0
VERTEX
 8
TRAILER
 6
CONTINUOUS
 62
1
 10
27113.9248432968
 20
19121.595322845
 30
0.0
 0
SEQEND
 0
POLYLINE
 8
TRACTOR
 6
CONTINUOUS
 62
1
 66
1
 10
0.0
 20
0.0
 30
0.0
 70
129
 0
VERTEX
 8
TRACTOR
 6
CONTINUOUS
 62
1
 10
37190.8676547292
 20
35132.74911254
 30
0.0
 0
VERTEX
 8
TRACTOR
 6
CONTINUOUS
 62
1
 10
39100.2826264789
 20
33534.5518576125
 30
0.0
 0
VERTEX
 8
TRACTOR
 6
CONTINUOUS
 62
1
 10
35826.8665621695
 20
29623.7019154744
 30
0.0
 0
VERTEX
 8
TRACTOR
 6
CONTINUOUS
 62
1
 10
33917.4515904197
 20
31221.899170402
 30
0.0
 0
SEQEND
 0
POLYLINE
 8
TRAILER
 6
CONTINUOUS
 62
1
 66
1
 10
0.0
 20
0.0
 30
0.0
 70
129
 0
VERTEX
 8
TRAILER
 6
CONTINUOUS
 62
1
 10
35544.4371781209
 20
33363.8515058508
 30
0.0
 0
VERTEX
 8
TRAILER
 6
CONTINUOUS
 62
1
 10
37657.89022661
 20
32047.258853649
 30
0.0
 0
VERTEX
 8
TRAILER
 6
CONTINUOUS
 62
1
 10
30789.4008482558
 20
21021.6543958682
 30
0.0
 0
VERTEX
 8
TRAILER
 6
CONTINUOUS
 62
1
 10
28675.9477997667
 20
22338.2470480701
 30
0.0
 0
SEQEND
 0
POLYLINE
 8
TRACTOR
 6
CONTINUOUS
 62
1
 66
1
 10
0.0
 20
0.0
 30
0.0
 70
129
 0
VERTEX
 8
TRACTOR
 6
CONTINUOUS
 62
1
 10
39462.7792840943
 20
37838.2976848128
 30
0.0
 0
VERTEX
 8
TRACTOR
 6
CONTINUOUS
 62
1
 10
41370.7066885498
 20
36238.3248665039
 30
0.0
 0
VERTEX
 8
TRACTOR
 6
CONTINUOUS
 62
1
 10
38093.6539281581
 20
32330.5217489443
 30
0.0
 0
VERTEX
 8
TRACTOR
 6
CONTINUOUS
 62
1
 10
36185.7265237025
 20
33930.4945672531
 30
0.0
 0
SEQEND
 0
POLYLINE
 8
TRAILER
 6
CONTINUOUS
 62
1
 66
1
 10
0.0
 20
0.0
 30
0.0
 70
129
 0
VERTEX
 8
TRAILER
 6
CONTINUOUS
 62
1
 10
37886.209451349
 20
36094.0355677754
 30
0.0
 0
VERTEX
 8
TRAILER
 6
CONTINUOUS
 62
1
 10
39934.0673335069
 20
34677.568803434
 30
0.0
 0
VERTEX
 8
TRAILER
 6
CONTINUOUS
 62
1
 10
32544.5479484488
 20
23994.1656350681
 30
0.0
 0
VERTEX
 8
TRAILER
 6
CONTINUOUS
 62
1
 10
30496.6900662909
 20
25410.6323994095
 30
0.0
 0
SEQEND
 0
POLYLINE
 8
TRACTOR
 6
CONTINUOUS
 62
1
 66
1
 10
0.0
 20
0.0
 30
0.0
 70
129
 0
VERTEX
 8
TRACTOR
 6
CONTINUOUS
 62
1
 10
41733.3768045316
 20
40543.8025579324
 30
0.0
 0
VERTEX
 8
TRACTOR
 6
CONTINUOUS
 62
1
 10
43640.9431251599
 20
38943.3992548852
 30
0.0
 0
VERTEX
 8
TRACTOR
 6
CONTINUOUS
 62
1
 10
40363.0086490392
 20
35036.3357066102
 30
0.0
 0
VERTEX
 8
TRACTOR
 6
CONTINUOUS
 62
1
 10
38455.4423284108
 20
36636.7390096574
 30
0.0
 0
SEQEND
 0
POLYLINE
 8
TRAILER
 6
CONTINUOUS
 62
1
 66
1
 10
0.0
 20
0.0
 30
0.0
 70
129
 0
VERTEX
 8
TRAILER
 6
CONTINUOUS
 62
1
 10
40204.8960286399
 20
38813.4702486912
 30
0.0
 0
VERTEX
 8
TRAILER
 6
CONTINUOUS
 62
1
 10
42206.7487048446
 20
37332.6981991264
 30
0.0
 0
VERTEX
 8
TRAILER
 6
CONTINUOUS
 62
1
 10
34481.7571691635
 20
26889.298093143
 30
0.0
 0
VERTEX
 8
TRAILER
 6
CONTINUOUS
 62
1
 10
32479.9044929588
 20
28370.0701427077
 30
0.0
 0
SEQEND
 0
POLYLINE
 8
TRACTOR
 6
CONTINUOUS
 62
1
 66
1
 10
0.0
 20
0.0
 30
0.0
 70
129
 0
VERTEX
 8
TRACTOR
 6
CONTINUOUS
 62
1
 10
44003.6555577786
 20
43249.2970599925
 30
0.0
 0
VERTEX
 8
TRACTOR
 6
CONTINUOUS
 62
1
 10
45911.1342767076
 20
41648.7893477859
 30
0.0
 0
VERTEX
 8
TRACTOR
 6
CONTINUOUS
 62
1
 10
42632.9859505013
 20
37741.9052246783
 30
0.0
 0
VERTEX
 8
TRACTOR
 6
CONTINUOUS
 62
1
 10
40725.5072315723
 20
39342.4129368849
 30
0.0
 0
SEQEND
 0
POLYLINE
 8
TRAILER
 6
CONTINUOUS
 62
1
 66
1
 10
0.0
 20
0.0
 30
0.0
 70
129
 0
VERTEX
 8
TRAILER
 6
CONTINUOUS
 62
1
 10
42507.4187885662
 20
41527.1931482575
 30
0.0
 0
VERTEX
 8
TRAILER
 6
CONTINUOUS
 62
1
 10
44477.8294444776
 20
40004.8325316258
 30
0.0
 0
VERTEX
 8
TRAILER
 6
CONTINUOUS
 62
1
 10
36535.8758661463
 20
29725.461278498
 30
0.0
 0
VERTEX
 8
TRAILER
 6
CONTINUOUS
 62
1
 10
34565.465210235
 20
31247.8218951296
 30
0.0
 0
SEQEND
 0
POLYLINE
 8
TRACTOR
 6
CONTINUOUS
 62
1
 66
1
 10
0.0
 20
0.0
 30
0.0
 70
129
 0
VERTEX
 8
TRACTOR
 6
CONTINUOUS
 62
1
 10
46273.8569881519
 20
45954.7890598443
 30
0.0
 0
VERTEX
 8
TRACTOR
 6
CONTINUOUS
 62
1
 10
48181.3144569288
 20
44354.2560221324
 30
0.0
 0
VERTEX
 8
TRACTOR
 6
CONTINUOUS
 62
1
 10
44903.1142592055
 20
40447.4154234328
 30
0.0
 0
VERTEX
 8
TRACTOR
 6
CONTINUOUS
 62
1
 10
42995.6567904287
 20
42047.9484611448
 30
0.0
 0
SEQEND
 0
POLYLINE
 8
TRAILER
 6
CONTINUOUS
 62
1
 66
1
 10
0.0
 20
0.0
 30
0.0
 70
129
 0
VERTEX
 8
TRAILER
 6
CONTINUOUS
 62
1
 10
44799.0172291
 20
44237.7064008258
 30
0.0
 0
VERTEX
 8
TRAILER
 6
CONTINUOUS
 62
1
 10
46748.2513197584
 20
42688.3237948129
 30
0.0
 0
VERTEX
 8
TRAILER
 6
CONTINUOUS
 62
1
 10
38665.3276040526
 20
32519.4278760772
 30
0.0
 0
VERTEX
 8
TRAILER
 6
CONTINUOUS
 62
1
 10
36716.0935133942
 20
34068.8104820901
 30
0.0
 0
SEQEND
 0
POLYLINE
 8
TRACTOR
 6
CONTINUOUS
 62
1
 66
1
 10
0.0
 20
0.0
 30
0.0
 70
129
 0
VERTEX
 8
TRACTOR
 6
CONTINUOUS
 62
1
 10
47181.9310854136
 20
47036.9856505194
 30
0.0
 0
VERTEX
 8
TRACTOR
 6
CONTINUOUS
 62
1
 10
49089.3856105602
 20
45436.4491047018
 30
0.0
 0
VERTEX
 8
TRACTOR
 6
CONTINUOUS
 62
1
 10
45811.1782275604
 20
41529.6145351243
 30
0.0
 0
VERTEX
 8
TRACTOR
 6
CONTINUOUS
 62
1
 10
43903.7237024138
 20
43130.1510809419
 30
0.0
 0
SEQEND
 0
POLYLINE
 8
TRAILER
 6
CONTINUOUS
 62
1
 66
1
 10
0.0
 20
0.0
 30
0.0
 70
129
 0
VERTEX
 8
TRAILER
 6
CONTINUOUS
 62
1
 10
45713.4586142535
 20
45321.3332695906
 30
0.0
 0
VERTEX
 8
TRAILER
 6
CONTINUOUS
 62
1
 10
47656.339304949
 20
43763.9911036802
 30
0.0
 0
VERTEX
 8
TRAILER
 6
CONTINUOUS
 62
1
 10
39531.8916201393
 20
33628.2400305337
 30
0.0
 0
VERTEX
 8
TRAILER
 6
CONTINUOUS
 62
1
 10
37589.0109294438
 20
35185.5821964441
 30
0.0
 0
SEQEND
 0
LINE
 8
FUKUIN
 6
CONTINUOUS
 62
7
 10
25333.1397305948
 20
3131.34463899786
 30
0.0
 11
25333.1397305948
 21
21638.7163234036
 31
0.0
 0
LINE
 8
FUKUIN
 6
CONTINUOUS
 62
7
 10
30329.2968405115
 20
3131.34463899786
 30
0.0
 11
30329.2968405115
 21
19820.2638496765
 31
0.0
 0
LINE
 8
FUKUIN
 6
CONTINUOUS
 62
7
 10
25333.1397305948
 20
21638.7163234036
 30
0.0
 11
48795.1031087871
 21
49599.595468678
 31
0.0
 0
LINE
 8
FUKUIN
 6
CONTINUOUS
 62
7
 10
30329.2968405115
 20
19820.2638496765
 30
0.0
 11
52622.3814997881
 21
46388.1275823762
 31
0.0
 0
CIRCLE
 8
SENYUU
 6
CONTINUOUS
 62
7
 10
27911.8302358881
 20
20467.361374772
 30
0.0
 40
2463.7717638821
 0
ENDSEC
 0
EOF
