 0
SECTION
 2
HEADER
 9
$ACADVER
 1
AC1009
 9
$EXTMIN
 10
0.0
 20
0.0
 9
$EXTMAX
 10
74250.0
 20
52500.0
 9
$LIMMIN
 10
0.0
 20
0.0
 9
$LIMMAX
 10
74250.0
 20
52500.0
 9
$LTSCALE
 40
0.25
 9
$DIMSCALE
 40
10.0
 0
ENDSEC
 0
SECTION
 2
TABLES
 0
TABLE
 2
LTYPE
 70
9
 0
LTYPE
 2
CONTINUOUS
 70
0
 3
Solid line
 72
65
 73
0
 40
0.0
 0
LTYPE
 2
DASH
 70
0
 3
DASH
 72
65
 73
2
 40
7500.0
 49
6000.0
 49
-1500.0
 0
LTYPE
 2
DASHDOT
 70
0
 3
DASHDOT
 72
65
 73
4
 40
18500.0
 49
12000.0
 49
-1500.0
 49
3500.0
 49
-1500.0
 0
LTYPE
 2
DASHDOTDOT
 70
0
 3
DASHDOTDOT
 72
65
 73
6
 40
23500.0
 49
12000.0
 49
-1500.0
 49
3500.0
 49
-1500.0
 49
3500.0
 49
-1500.0
 0
LTYPE
 2
DOT
 70
0
 3
DOT
 72
65
 73
2
 40
1750.0
 49
250.0
 49
-1500.0
 0
LTYPE
 2
DASHED1
 70
0
 3
DASHED1
 72
65
 73
2
 40
5000.0
 49
2500.0
 49
-2500.0
 0
LTYPE
 2
DASHED2
 70
0
 3
DASHED2
 72
65
 73
2
 40
2500.0
 49
1250.0
 49
-1250.0
 0
LTYPE
 2
CENTER1
 70
0
 3
CENTER1
 72
65
 73
4
 40
10000.0
 49
6250.0
 49
-1250.0
 49
1250.0
 49
-1250.0
 0
LTYPE
 2
CENTER2
 70
0
 3
CENTER2
 72
65
 73
6
 40
9500.0
 49
3250.0
 49
-1250.0
 49
1250.0
 49
-1250.0
 49
1250.0
 49
-1250.0
 0
ENDTAB
 0
TABLE
 2
LAYER
 70
10
 0
LAYER
 2
SYSLAYER
 70
0
 62
7
 6
CONTINUOUS
 0
LAYER
 2
SYSLAYER_RST
 70
0
 62
7
 6
CONTINUOUS
 0
LAYER
 2
TRACTOR
 70
0
 62
1
 6
CONTINUOUS
 0
LAYER
 2
TRAILER
 70
0
 62
1
 6
CONTINUOUS
 0
LAYER
 2
FUKUIN
 70
0
 62
7
 6
CONTINUOUS
 0
LAYER
 2
CAR_HATA
 70
0
 62
7
 6
CONTINUOUS
 0
LAYER
 2
SENYUU
 70
0
 62
7
 6
CONTINUOUS
 0
LAYER
 2
HYOU
 70
0
 62
7
 6
CONTINUOUS
 0
LAYER
 2
TRAILER2
 70
0
 62
1
 6
CONTINUOUS
 0
LAYER
 2
TRAILER3
 70
0
 62
1
 6
CONTINUOUS
 0
ENDTAB
 0
TABLE
 2
STYLE
 70
4
 0
STYLE
 2
MTC_FONT0
 70
0
 40
0.0
 41
1.0
 50
0.0
 71
0
 42
752.5
 3
MONOTXT
 4
EXTFONT
 0
STYLE
 2
MTC_FONT1
 70
0
 40
0.0
 41
1.0
 50
0.0
 71
0
 42
752.5
 3
MONOTXT
 4
EXTFONT
 0
STYLE
 2
MTC_FONT2
 70
0
 40
0.0
 41
0.5
 50
0.0
 71
0
 42
2.14999995194376
 3
MONOTXT
 4
EXTFONT
 0
STYLE
 2
MTC_FONT3
 70
0
 40
0.0
 41
1.0
 50
0.0
 71
0
 42
0.0
 3
MONOTXT
 4
EXTFONT
 0
ENDTAB
 0
TABLE
 2
DIMSTYLE
 70
0
 0
ENDTAB
 0
ENDSEC
 0
SECTION
 2
BLOCKS
 0
BLOCK
 8
0
 2
MTC_ARROW_NONE
 70
0
 10
0.0
 20
0.0
 30
0.0
 3
MTC_ARROW_NONE
 0
ENDBLK
 8
0
 0
ENDSEC
 0
SECTION
 2
ENTITIES
 0
TEXT
 8
HYOU
 62
7
 10
47500.0
 20
24140.0
 30
0
 11
47500.0
 21
25000.0
 31
0
 40
860.0
 1
タイトル         軌跡図
 41
0.5
 50
0.0
 51
0.0
 7
MTC_FONT2
 72
0
 73
3
 0
TEXT
 8
HYOU
 62
7
 10
47500.0
 20
22890.0
 30
0
 11
47500.0
 21
23750.0
 31
0
 40
860.0
 1
車両名           倉庫用軌跡図
 41
0.5
 50
0.0
 51
0.0
 7
MTC_FONT2
 72
0
 73
3
 0
TEXT
 8
HYOU
 62
7
 10
47500.0
 20
21640.0
 30
0
 11
47500.0
 21
22500.0
 31
0
 40
860.0
 1
車種             セミトレーラ
 41
0.5
 50
0.0
 51
0.0
 7
MTC_FONT2
 72
0
 73
3
 0
TEXT
 8
HYOU
 62
7
 10
47500.0
 20
20390.0
 30
0
 11
47500.0
 21
21250.0
 31
0
 40
860.0
 1
全長             15220mm
 41
0.5
 50
0.0
 51
0.0
 7
MTC_FONT2
 72
0
 73
3
 0
TEXT
 8
HYOU
 62
7
 10
47500.0
 20
19140.0
 30
0
 11
47500.0
 21
20000.0
 31
0
 40
860.0
 1
車幅             2490mm
 41
0.5
 50
0.0
 51
0.0
 7
MTC_FONT2
 72
0
 73
3
 0
TEXT
 8
HYOU
 62
7
 10
47500.0
 20
17890.0
 30
0
 11
47500.0
 21
18750.0
 31
0
 40
860.0
 1
最小回転半径     9000mm
 41
0.5
 50
0.0
 51
0.0
 7
MTC_FONT2
 72
0
 73
3
 0
TEXT
 8
HYOU
 62
7
 10
47500.0
 20
16640.0
 30
0
 11
47500.0
 21
17500.0
 31
0
 40
860.0
 1
連結最小回転半径 10030mm  JASO Z 107-04
 41
0.5
 50
0.0
 51
0.0
 7
MTC_FONT2
 72
0
 73
3
 0
TEXT
 8
HYOU
 62
7
 10
47500.0
 20
15390.0
 30
0
 11
47500.0
 21
16250.0
 31
0
 40
860.0
 1
所要道路幅       4500 (4467)mm
 41
0.5
 50
0.0
 51
0.0
 7
MTC_FONT2
 72
0
 73
3
 0
TEXT
 8
HYOU
 62
7
 10
47500.0
 20
14140.0
 30
0
 11
47500.0
 21
15000.0
 31
0
 40
860.0
 1
所要占有幅       4600 (4506)mm
 41
0.5
 50
0.0
 51
0.0
 7
MTC_FONT2
 72
0
 73
3
 0
TEXT
 8
HYOU
 62
7
 10
47500.0
 20
12890.0
 30
0
 11
47500.0
 21
13750.0
 31
0
 40
860.0
 1
旋回方向         右旋回
 41
0.5
 50
0.0
 51
0.0
 7
MTC_FONT2
 72
0
 73
3
 0
TEXT
 8
HYOU
 62
7
 10
47500.0
 20
11640.0
 30
0
 11
47500.0
 21
12500.0
 31
0
 40
860.0
 1
旋回角度         30.000度
 41
0.5
 50
0.0
 51
0.0
 7
MTC_FONT2
 72
0
 73
3
 0
TEXT
 8
HYOU
 62
7
 10
47500.0
 20
10390.0
 30
0
 11
47500.0
 21
11250.0
 31
0
 40
860.0
 1
スケール         1/250
 41
0.5
 50
0.0
 51
0.0
 7
MTC_FONT2
 72
0
 73
3
 0
TEXT
 8
HYOU
 62
7
 10
47500.0
 20
9140.0
 30
0
 11
47500.0
 21
10000.0
 31
0
 40
860.0
 1
作図方法         JASO Z 006 プロッタ法
 41
0.5
 50
0.0
 51
0.0
 7
MTC_FONT2
 72
0
 73
3
 0
TEXT
 8
HYOU
 62
7
 10
47500.0
 20
7890.0
 30
0
 11
47500.0
 21
8750.0
 31
0
 40
860.0
 1
  刻み角         5度
 41
0.5
 50
0.0
 51
0.0
 7
MTC_FONT2
 72
0
 73
3
 0
TEXT
 8
HYOU
 62
7
 10
47500.0
 20
6640.0
 30
0
 11
47500.0
 21
7500.0
 31
0
 40
860.0
 1
  表示間隔       5
 41
0.5
 50
0.0
 51
0.0
 7
MTC_FONT2
 72
0
 73
3
 0
LINE
 8
CAR_HATA
 6
CONTINUOUS
 62
7
 10
29732.4775315554
 20
20358.8561690087
 30
0.0
 11
24487.4775315554
 21
20358.8561690087
 31
0.0
 0
LINE
 8
CAR_HATA
 6
CONTINUOUS
 62
7
 10
29732.4775315554
 20
5138.85616900868
 30
0.0
 11
24487.4775315554
 21
5138.85616900868
 31
0.0
 0
LINE
 8
CAR_HATA
 6
CONTINUOUS
 62
7
 10
24487.4775315554
 20
5138.85616900868
 30
0.0
 11
24487.4775315554
 21
20358.8561690087
 31
0.0
 0
LINE
 8
CAR_HATA
 6
CONTINUOUS
 62
7
 10
24487.4775315554
 20
5138.85616900868
 30
0.0
 11
24256.5374238795
 21
5538.85616900868
 31
0.0
 0
LINE
 8
CAR_HATA
 6
CONTINUOUS
 62
7
 10
24487.4775315554
 20
5138.85616900868
 30
0.0
 11
24718.4176392312
 21
5538.85616900868
 31
0.0
 0
LINE
 8
CAR_HATA
 6
CONTINUOUS
 62
7
 10
24487.4775315554
 20
20358.8561690087
 30
0.0
 11
24256.5374238795
 21
19958.8561690087
 31
0.0
 0
LINE
 8
CAR_HATA
 6
CONTINUOUS
 62
7
 10
24487.4775315554
 20
20358.8561690087
 30
0.0
 11
24718.4176392312
 21
19958.8561690087
 31
0.0
 0
TEXT
 8
CAR_HATA
 62
7
 10
24417.4775315554
 20
12211.3561690087
 30
0
 11
24487.4775315554
 21
12748.8561690087
 31
0
 40
430.0
 1
15220
 41
0.5
 50
90.0
 51
0.0
 7
MTC_FONT2
 72
1
 73
1
 0
LINE
 8
CAR_HATA
 6
CONTINUOUS
 62
7
 10
29732.4775315554
 20
20358.8561690087
 30
0.0
 11
25487.4775315554
 21
20358.8561690087
 31
0.0
 0
LINE
 8
CAR_HATA
 6
CONTINUOUS
 62
7
 10
29732.4775315554
 20
18968.8561690087
 30
0.0
 11
25487.4775315554
 21
18968.8561690087
 31
0.0
 0
LINE
 8
CAR_HATA
 6
CONTINUOUS
 62
7
 10
25487.4775315554
 20
18968.8561690087
 30
0.0
 11
25487.4775315554
 21
20358.8561690087
 31
0.0
 0
LINE
 8
CAR_HATA
 6
CONTINUOUS
 62
7
 10
25487.4775315554
 20
18968.8561690087
 30
0.0
 11
25256.5374238795
 21
19368.8561690087
 31
0.0
 0
LINE
 8
CAR_HATA
 6
CONTINUOUS
 62
7
 10
25487.4775315554
 20
18968.8561690087
 30
0.0
 11
25718.4176392312
 21
19368.8561690087
 31
0.0
 0
LINE
 8
CAR_HATA
 6
CONTINUOUS
 62
7
 10
25487.4775315554
 20
20358.8561690087
 30
0.0
 11
25256.5374238795
 21
19958.8561690087
 31
0.0
 0
LINE
 8
CAR_HATA
 6
CONTINUOUS
 62
7
 10
25487.4775315554
 20
20358.8561690087
 30
0.0
 11
25718.4176392312
 21
19958.8561690087
 31
0.0
 0
TEXT
 8
CAR_HATA
 62
7
 10
25417.4775315554
 20
19233.8561690087
 30
0
 11
25487.4775315554
 21
19663.8561690087
 31
0
 40
430.0
 1
1390
 41
0.5
 50
90.0
 51
0.0
 7
MTC_FONT2
 72
1
 73
1
 0
LINE
 8
CAR_HATA
 6
CONTINUOUS
 62
7
 10
29732.4775315554
 20
18968.8561690087
 30
0.0
 11
25487.4775315554
 21
18968.8561690087
 31
0.0
 0
LINE
 8
CAR_HATA
 6
CONTINUOUS
 62
7
 10
29732.4775315554
 20
16458.8561690087
 30
0.0
 11
25487.4775315554
 21
16458.8561690087
 31
0.0
 0
LINE
 8
CAR_HATA
 6
CONTINUOUS
 62
7
 10
25487.4775315554
 20
16458.8561690087
 30
0.0
 11
25487.4775315554
 21
18968.8561690087
 31
0.0
 0
LINE
 8
CAR_HATA
 6
CONTINUOUS
 62
7
 10
25487.4775315554
 20
16458.8561690087
 30
0.0
 11
25256.5374238795
 21
16858.8561690087
 31
0.0
 0
LINE
 8
CAR_HATA
 6
CONTINUOUS
 62
7
 10
25487.4775315554
 20
16458.8561690087
 30
0.0
 11
25718.4176392312
 21
16858.8561690087
 31
0.0
 0
LINE
 8
CAR_HATA
 6
CONTINUOUS
 62
7
 10
25487.4775315554
 20
18968.8561690087
 30
0.0
 11
25256.5374238795
 21
18568.8561690087
 31
0.0
 0
LINE
 8
CAR_HATA
 6
CONTINUOUS
 62
7
 10
25487.4775315554
 20
18968.8561690087
 30
0.0
 11
25718.4176392312
 21
18568.8561690087
 31
0.0
 0
TEXT
 8
CAR_HATA
 62
7
 10
25417.4775315554
 20
17283.8561690087
 30
0
 11
25487.4775315554
 21
17713.8561690087
 31
0
 40
430.0
 1
2510
 41
0.5
 50
90.0
 51
0.0
 7
MTC_FONT2
 72
1
 73
1
 0
LINE
 8
CAR_HATA
 6
CONTINUOUS
 62
7
 10
29732.4775315554
 20
16458.8561690087
 30
0.0
 11
25487.4775315554
 21
16458.8561690087
 31
0.0
 0
LINE
 8
CAR_HATA
 6
CONTINUOUS
 62
7
 10
29732.4775315554
 20
15258.8561690087
 30
0.0
 11
25487.4775315554
 21
15258.8561690087
 31
0.0
 0
LINE
 8
CAR_HATA
 6
CONTINUOUS
 62
7
 10
25487.4775315554
 20
15258.8561690087
 30
0.0
 11
25487.4775315554
 21
16458.8561690087
 31
0.0
 0
LINE
 8
CAR_HATA
 6
CONTINUOUS
 62
7
 10
25487.4775315554
 20
15258.8561690087
 30
0.0
 11
25256.5374238795
 21
15658.8561690087
 31
0.0
 0
LINE
 8
CAR_HATA
 6
CONTINUOUS
 62
7
 10
25487.4775315554
 20
15258.8561690087
 30
0.0
 11
25718.4176392312
 21
15658.8561690087
 31
0.0
 0
LINE
 8
CAR_HATA
 6
CONTINUOUS
 62
7
 10
25487.4775315554
 20
16458.8561690087
 30
0.0
 11
25256.5374238795
 21
16058.8561690087
 31
0.0
 0
LINE
 8
CAR_HATA
 6
CONTINUOUS
 62
7
 10
25487.4775315554
 20
16458.8561690087
 30
0.0
 11
25718.4176392312
 21
16058.8561690087
 31
0.0
 0
TEXT
 8
CAR_HATA
 62
7
 10
25417.4775315554
 20
15428.8561690087
 30
0
 11
25487.4775315554
 21
15858.8561690087
 31
0
 40
430.0
 1
1200
 41
0.5
 50
90.0
 51
0.0
 7
MTC_FONT2
 72
1
 73
1
 0
LINE
 8
CAR_HATA
 6
CONTINUOUS
 62
7
 10
29732.4775315554
 20
17128.8561690087
 30
0.0
 11
26487.4775315554
 21
17128.8561690087
 31
0.0
 0
LINE
 8
CAR_HATA
 6
CONTINUOUS
 62
7
 10
29732.4775315554
 20
16458.8561690087
 30
0.0
 11
26487.4775315554
 21
16458.8561690087
 31
0.0
 0
LINE
 8
CAR_HATA
 6
CONTINUOUS
 62
7
 10
26487.4775315554
 20
16458.8561690087
 30
0.0
 11
26487.4775315554
 21
17128.8561690087
 31
0.0
 0
LINE
 8
CAR_HATA
 6
CONTINUOUS
 62
7
 10
26487.4775315554
 20
17128.8561690087
 30
0.0
 11
26487.4775315554
 21
18128.8561690087
 31
0.0
 0
LINE
 8
CAR_HATA
 6
CONTINUOUS
 62
7
 10
26487.4775315554
 20
17128.8561690087
 30
0.0
 11
26256.5374238795
 21
17528.8561690087
 31
0.0
 0
LINE
 8
CAR_HATA
 6
CONTINUOUS
 62
7
 10
26487.4775315554
 20
17128.8561690087
 30
0.0
 11
26718.4176392312
 21
17528.8561690087
 31
0.0
 0
TEXT
 8
CAR_HATA
 62
7
 10
26417.4775315554
 20
17483.8561690087
 30
0
 11
26487.4775315554
 21
18128.8561690087
 31
0
 40
430.0
 1
670
 41
0.5
 50
90.0
 51
0.0
 7
MTC_FONT2
 72
2
 73
1
 0
LINE
 8
CAR_HATA
 6
CONTINUOUS
 62
7
 10
26487.4775315554
 20
15458.8561690087
 30
0.0
 11
26487.4775315554
 21
16458.8561690087
 31
0.0
 0
LINE
 8
CAR_HATA
 6
CONTINUOUS
 62
7
 10
26487.4775315554
 20
16458.8561690087
 30
0.0
 11
26256.5374238795
 21
16058.8561690087
 31
0.0
 0
LINE
 8
CAR_HATA
 6
CONTINUOUS
 62
7
 10
26487.4775315554
 20
16458.8561690087
 30
0.0
 11
26718.4176392312
 21
16058.8561690087
 31
0.0
 0
LINE
 8
CAR_HATA
 6
CONTINUOUS
 62
7
 10
29732.4775315554
 20
8688.85616900868
 30
0.0
 11
27487.4775315554
 21
8688.85616900868
 31
0.0
 0
LINE
 8
CAR_HATA
 6
CONTINUOUS
 62
7
 10
29732.4775315554
 20
5138.85616900868
 30
0.0
 11
27487.4775315554
 21
5138.85616900868
 31
0.0
 0
LINE
 8
CAR_HATA
 6
CONTINUOUS
 62
7
 10
27487.4775315554
 20
5138.85616900868
 30
0.0
 11
27487.4775315554
 21
8688.85616900868
 31
0.0
 0
LINE
 8
CAR_HATA
 6
CONTINUOUS
 62
7
 10
27487.4775315554
 20
5138.85616900868
 30
0.0
 11
27256.5374238795
 21
5538.85616900868
 31
0.0
 0
LINE
 8
CAR_HATA
 6
CONTINUOUS
 62
7
 10
27487.4775315554
 20
5138.85616900868
 30
0.0
 11
27718.4176392312
 21
5538.85616900868
 31
0.0
 0
LINE
 8
CAR_HATA
 6
CONTINUOUS
 62
7
 10
27487.4775315554
 20
8688.85616900868
 30
0.0
 11
27256.5374238795
 21
8288.85616900868
 31
0.0
 0
LINE
 8
CAR_HATA
 6
CONTINUOUS
 62
7
 10
27487.4775315554
 20
8688.85616900868
 30
0.0
 11
27718.4176392312
 21
8288.85616900868
 31
0.0
 0
TEXT
 8
CAR_HATA
 62
7
 10
27417.4775315554
 20
6483.85616900868
 30
0
 11
27487.4775315554
 21
6913.85616900868
 31
0
 40
430.0
 1
3550
 41
0.5
 50
90.0
 51
0.0
 7
MTC_FONT2
 72
1
 73
1
 0
LINE
 8
CAR_HATA
 6
CONTINUOUS
 62
7
 10
29732.4775315554
 20
17128.8561690087
 30
0.0
 11
27487.4775315554
 21
17128.8561690087
 31
0.0
 0
LINE
 8
CAR_HATA
 6
CONTINUOUS
 62
7
 10
29732.4775315554
 20
8688.85616900868
 30
0.0
 11
27487.4775315554
 21
8688.85616900868
 31
0.0
 0
LINE
 8
CAR_HATA
 6
CONTINUOUS
 62
7
 10
27487.4775315554
 20
8688.85616900868
 30
0.0
 11
27487.4775315554
 21
17128.8561690087
 31
0.0
 0
LINE
 8
CAR_HATA
 6
CONTINUOUS
 62
7
 10
27487.4775315554
 20
8688.85616900868
 30
0.0
 11
27256.5374238795
 21
9088.85616900868
 31
0.0
 0
LINE
 8
CAR_HATA
 6
CONTINUOUS
 62
7
 10
27487.4775315554
 20
8688.85616900868
 30
0.0
 11
27718.4176392312
 21
9088.85616900868
 31
0.0
 0
LINE
 8
CAR_HATA
 6
CONTINUOUS
 62
7
 10
27487.4775315554
 20
17128.8561690087
 30
0.0
 11
27256.5374238795
 21
16728.8561690087
 31
0.0
 0
LINE
 8
CAR_HATA
 6
CONTINUOUS
 62
7
 10
27487.4775315554
 20
17128.8561690087
 30
0.0
 11
27718.4176392312
 21
16728.8561690087
 31
0.0
 0
TEXT
 8
CAR_HATA
 62
7
 10
27417.4775315554
 20
12478.8561690087
 30
0
 11
27487.4775315554
 21
12908.8561690087
 31
0
 40
430.0
 1
8440
 41
0.5
 50
90.0
 51
0.0
 7
MTC_FONT2
 72
1
 73
1
 0
LINE
 8
CAR_HATA
 6
CONTINUOUS
 62
7
 10
29732.4775315554
 20
18128.8561690087
 30
0.0
 11
27487.4775315554
 21
18128.8561690087
 31
0.0
 0
LINE
 8
CAR_HATA
 6
CONTINUOUS
 62
7
 10
29732.4775315554
 20
17128.8561690087
 30
0.0
 11
27487.4775315554
 21
17128.8561690087
 31
0.0
 0
LINE
 8
CAR_HATA
 6
CONTINUOUS
 62
7
 10
27487.4775315554
 20
17128.8561690087
 30
0.0
 11
27487.4775315554
 21
18128.8561690087
 31
0.0
 0
LINE
 8
CAR_HATA
 6
CONTINUOUS
 62
7
 10
27487.4775315554
 20
18128.8561690087
 30
0.0
 11
27487.4775315554
 21
19128.8561690087
 31
0.0
 0
LINE
 8
CAR_HATA
 6
CONTINUOUS
 62
7
 10
27487.4775315554
 20
18128.8561690087
 30
0.0
 11
27256.5374238795
 21
18528.8561690087
 31
0.0
 0
LINE
 8
CAR_HATA
 6
CONTINUOUS
 62
7
 10
27487.4775315554
 20
18128.8561690087
 30
0.0
 11
27718.4176392312
 21
18528.8561690087
 31
0.0
 0
TEXT
 8
CAR_HATA
 62
7
 10
27417.4775315554
 20
18268.8561690087
 30
0
 11
27487.4775315554
 21
19128.8561690087
 31
0
 40
430.0
 1
1000
 41
0.5
 50
90.0
 51
0.0
 7
MTC_FONT2
 72
2
 73
1
 0
LINE
 8
CAR_HATA
 6
CONTINUOUS
 62
7
 10
28487.4775315554
 20
5138.85616900868
 30
0.0
 11
28487.4775315554
 21
4138.85616900868
 31
0.0
 0
LINE
 8
CAR_HATA
 6
CONTINUOUS
 62
7
 10
30977.4775315554
 20
5138.85616900868
 30
0.0
 11
30977.4775315554
 21
4138.85616900868
 31
0.0
 0
LINE
 8
CAR_HATA
 6
CONTINUOUS
 62
7
 10
28487.4775315554
 20
4138.85616900868
 30
0.0
 11
30977.4775315554
 21
4138.85616900868
 31
0.0
 0
LINE
 8
CAR_HATA
 6
CONTINUOUS
 62
7
 10
28487.4775315554
 20
4138.85616900868
 30
0.0
 11
28887.4775315554
 21
4369.79627668453
 31
0.0
 0
LINE
 8
CAR_HATA
 6
CONTINUOUS
 62
7
 10
28487.4775315554
 20
4138.85616900868
 30
0.0
 11
28887.4775315554
 21
3907.91606133283
 31
0.0
 0
LINE
 8
CAR_HATA
 6
CONTINUOUS
 62
7
 10
30977.4775315554
 20
4138.85616900868
 30
0.0
 11
30577.4775315554
 21
4369.79627668453
 31
0.0
 0
LINE
 8
CAR_HATA
 6
CONTINUOUS
 62
7
 10
30977.4775315554
 20
4138.85616900868
 30
0.0
 11
30577.4775315554
 21
3907.91606133283
 31
0.0
 0
TEXT
 8
CAR_HATA
 62
7
 10
29302.4775315554
 20
4208.85616900868
 30
0
 11
29732.4775315554
 21
4138.85616900868
 31
0
 40
430.0
 1
2490
 41
0.5
 50
0.0
 51
0.0
 7
MTC_FONT2
 72
1
 73
1
 0
LINE
 8
CAR_HATA
 6
CONTINUOUS
 62
7
 10
28787.4775315554
 20
18968.8561690087
 30
0.0
 11
37430.3879210018
 21
16458.8561690087
 31
0.0
 0
LINE
 8
CAR_HATA
 6
CONTINUOUS
 62
7
 10
28787.4775315554
 20
18968.8561690087
 30
0.0
 11
29236.013512227
 21
19079.07779745
 31
0.0
 0
LINE
 8
CAR_HATA
 6
CONTINUOUS
 62
7
 10
28787.4775315554
 20
18968.8561690087
 30
0.0
 11
29107.2002521678
 21
18635.5234294563
 31
0.0
 0
TEXT
 8
CAR_HATA
 62
7
 10
36211.0929874033
 20
16885.8454720377
 30
0
 11
37430.3879210018
 21
16458.8561690087
 31
0
 40
430.0
 1
R=9000
 41
0.5
 50
343.806098676741
 51
0.0
 7
MTC_FONT2
 72
2
 73
1
 0
ARC
 8
CAR_HATA
 6
CONTINUOUS
 62
7
 10
37430.3879210018
 20
16458.8561690087
 30
0.0
 40
9000.0
 50
153.806098676741
 51
168.806098676741
 0
LINE
 8
CAR_HATA
 6
CONTINUOUS
 62
7
 10
28487.4775315554
 20
20358.8561690087
 30
0.0
 11
32617.1713255303
 21
18557.8981927878
 31
0.0
 0
LINE
 8
CAR_HATA
 6
CONTINUOUS
 62
7
 10
28487.4775315554
 20
20358.8561690087
 30
0.0
 11
28946.4450234736
 21
20410.645885127
 31
0.0
 0
LINE
 8
CAR_HATA
 6
CONTINUOUS
 62
7
 10
28487.4775315554
 20
20358.8561690087
 30
0.0
 11
28761.8124873277
 21
19987.2735195554
 31
0.0
 0
LINE
 8
CAR_HATA
 6
CONTINUOUS
 62
7
 10
32617.1713255303
 20
18557.8981927878
 30
0.0
 11
32342.836369758
 21
18929.4808422411
 31
0.0
 0
LINE
 8
CAR_HATA
 6
CONTINUOUS
 62
7
 10
32617.1713255303
 20
18557.8981927878
 30
0.0
 11
32158.2038336121
 21
18506.1084766695
 31
0.0
 0
LINE
 8
CAR_HATA
 6
CONTINUOUS
 62
7
 10
26654.2214123289
 20
21158.3385023462
 30
0.0
 11
28487.4775315554
 21
20358.8561690087
 31
0.0
 0
TEXT
 8
CAR_HATA
 62
7
 10
26682.2032939958
 20
21222.5024665191
 30
0
 11
26654.2214123289
 21
21158.3385023462
 31
0
 40
430.0
 1
4600
 41
0.5
 50
336.438001444228
 51
0.0
 7
MTC_FONT2
 72
0
 73
1
 0
LINE
 8
CAR_HATA
 6
CONTINUOUS
 62
7
 10
28270.4243690239
 20
2138.85616900868
 30
0.0
 11
32737.1738499743
 21
2138.85616900868
 31
0.0
 0
LINE
 8
CAR_HATA
 6
CONTINUOUS
 62
7
 10
28270.4243690239
 20
2138.85616900868
 30
0.0
 11
28670.4243690239
 21
2369.79627668453
 31
0.0
 0
LINE
 8
CAR_HATA
 6
CONTINUOUS
 62
7
 10
28270.4243690239
 20
2138.85616900868
 30
0.0
 11
28670.4243690239
 21
1907.91606133283
 31
0.0
 0
LINE
 8
CAR_HATA
 6
CONTINUOUS
 62
7
 10
32737.1738499743
 20
2138.85616900868
 30
0.0
 11
32337.1738499743
 21
2369.79627668453
 31
0.0
 0
LINE
 8
CAR_HATA
 6
CONTINUOUS
 62
7
 10
32737.1738499743
 20
2138.85616900868
 30
0.0
 11
32337.1738499743
 21
1907.91606133283
 31
0.0
 0
TEXT
 8
CAR_HATA
 62
7
 10
30073.7991094991
 20
2208.85616900868
 30
0
 11
30503.7991094991
 21
2138.85616900868
 31
0
 40
430.0
 1
4500
 41
0.5
 50
0.0
 51
0.0
 7
MTC_FONT2
 72
1
 73
1
 0
LINE
 8
CAR_HATA
 6
CONTINUOUS
 62
7
 10
49743.4625761205
 20
48358.709198192
 30
0.0
 11
45875.1440532765
 21
50592.0839386672
 31
0.0
 0
LINE
 8
CAR_HATA
 6
CONTINUOUS
 62
7
 10
49743.4625761205
 20
48358.709198192
 30
0.0
 11
49281.5823607688
 21
48358.709198192
 31
0.0
 0
LINE
 8
CAR_HATA
 6
CONTINUOUS
 62
7
 10
49743.4625761205
 20
48358.709198192
 30
0.0
 11
49512.5224684446
 21
48758.709198192
 31
0.0
 0
LINE
 8
CAR_HATA
 6
CONTINUOUS
 62
7
 10
45875.1440532765
 20
50592.0839386672
 30
0.0
 11
46106.0841609523
 21
50192.0839386672
 31
0.0
 0
LINE
 8
CAR_HATA
 6
CONTINUOUS
 62
7
 10
45875.1440532765
 20
50592.0839386672
 30
0.0
 11
46337.0242686282
 21
50592.0839386672
 31
0.0
 0
TEXT
 8
CAR_HATA
 62
7
 10
48146.6942383258
 20
49199.7747901647
 30
0
 11
47809.3033146985
 21
49475.3965684296
 31
0
 40
430.0
 1
4500
 41
0.5
 50
150.0
 51
0.0
 7
MTC_FONT2
 72
1
 73
1
 0
POLYLINE
 8
TRACTOR
 6
CONTINUOUS
 62
1
 66
1
 10
0.0
 20
0.0
 30
0.0
 70
129
 0
VERTEX
 8
TRACTOR
 6
CONTINUOUS
 62
1
 10
28487.4775315554
 20
20358.8561690087
 30
0.0
 0
VERTEX
 8
TRACTOR
 6
CONTINUOUS
 62
1
 10
30977.4775315554
 20
20358.8561690087
 30
0.0
 0
VERTEX
 8
TRACTOR
 6
CONTINUOUS
 62
1
 10
30977.4775315554
 20
15258.8561690087
 30
0.0
 0
VERTEX
 8
TRACTOR
 6
CONTINUOUS
 62
1
 10
28487.4775315554
 20
15258.8561690087
 30
0.0
 0
SEQEND
 0
POLYLINE
 8
TRAILER
 6
CONTINUOUS
 62
1
 66
1
 10
0.0
 20
0.0
 30
0.0
 70
129
 0
VERTEX
 8
TRAILER
 6
CONTINUOUS
 62
1
 10
28487.4775315554
 20
18128.8561690087
 30
0.0
 0
VERTEX
 8
TRAILER
 6
CONTINUOUS
 62
1
 10
30977.4775315554
 20
18128.8561690087
 30
0.0
 0
VERTEX
 8
TRAILER
 6
CONTINUOUS
 62
1
 10
30977.4775315554
 20
5138.85616900868
 30
0.0
 0
VERTEX
 8
TRAILER
 6
CONTINUOUS
 62
1
 10
28487.4775315554
 20
5138.85616900868
 30
0.0
 0
SEQEND
 0
POLYLINE
 8
TRACTOR
 6
CONTINUOUS
 62
1
 66
1
 10
0.0
 20
0.0
 30
0.0
 70
129
 0
VERTEX
 8
TRACTOR
 6
CONTINUOUS
 62
1
 10
30248.1312120143
 20
23206.4732247113
 30
0.0
 0
VERTEX
 8
TRACTOR
 6
CONTINUOUS
 62
1
 10
32609.3952517799
 20
22416.1997691851
 30
0.0
 0
VERTEX
 8
TRACTOR
 6
CONTINUOUS
 62
1
 10
30990.7628729912
 20
17579.8758323156
 30
0.0
 0
VERTEX
 8
TRACTOR
 6
CONTINUOUS
 62
1
 10
28629.4988332255
 20
18370.1492878419
 30
0.0
 0
SEQEND
 0
POLYLINE
 8
TRAILER
 6
CONTINUOUS
 62
1
 66
1
 10
0.0
 20
0.0
 30
0.0
 70
129
 0
VERTEX
 8
TRAILER
 6
CONTINUOUS
 62
1
 10
29232.0613705049
 20
20833.4365719269
 30
0.0
 0
VERTEX
 8
TRAILER
 6
CONTINUOUS
 62
1
 10
31715.8925016383
 20
20658.2711871825
 30
0.0
 0
VERTEX
 8
TRAILER
 6
CONTINUOUS
 62
1
 10
30802.0779041161
 20
7700.45335849872
 30
0.0
 0
VERTEX
 8
TRAILER
 6
CONTINUOUS
 62
1
 10
28318.2467729827
 20
7875.61874324317
 30
0.0
 0
SEQEND
 0
POLYLINE
 8
TRACTOR
 6
CONTINUOUS
 62
1
 66
1
 10
0.0
 20
0.0
 30
0.0
 70
129
 0
VERTEX
 8
TRACTOR
 6
CONTINUOUS
 62
1
 10
32281.619298822
 20
26357.2000666849
 30
0.0
 0
VERTEX
 8
TRACTOR
 6
CONTINUOUS
 62
1
 10
34496.2118269616
 20
25218.9206922306
 30
0.0
 0
VERTEX
 8
TRACTOR
 6
CONTINUOUS
 62
1
 10
32164.7962407299
 20
20683.0082851976
 30
0.0
 0
VERTEX
 8
TRACTOR
 6
CONTINUOUS
 62
1
 10
29950.2037125903
 20
21821.2876596519
 30
0.0
 0
SEQEND
 0
POLYLINE
 8
TRAILER
 6
CONTINUOUS
 62
1
 66
1
 10
0.0
 20
0.0
 30
0.0
 70
129
 0
VERTEX
 8
TRAILER
 6
CONTINUOUS
 62
1
 10
30887.5270863536
 20
24139.9619924751
 30
0.0
 0
VERTEX
 8
TRAILER
 6
CONTINUOUS
 62
1
 10
33329.2201938858
 20
23651.8690006903
 30
0.0
 0
VERTEX
 8
TRAILER
 6
CONTINUOUS
 62
1
 10
30782.9037427673
 20
10913.8796565762
 30
0.0
 0
VERTEX
 8
TRAILER
 6
CONTINUOUS
 62
1
 10
28341.210635235
 20
11401.9726483611
 30
0.0
 0
SEQEND
 0
POLYLINE
 8
TRACTOR
 6
CONTINUOUS
 62
1
 66
1
 10
0.0
 20
0.0
 30
0.0
 70
129
 0
VERTEX
 8
TRACTOR
 6
CONTINUOUS
 62
1
 10
34114.568536057
 20
29432.0110423488
 30
0.0
 0
VERTEX
 8
TRACTOR
 6
CONTINUOUS
 62
1
 10
36285.5668561521
 20
28212.6397723313
 30
0.0
 0
VERTEX
 8
TRACTOR
 6
CONTINUOUS
 62
1
 10
33788.0594356343
 20
23766.0167070762
 30
0.0
 0
VERTEX
 8
TRACTOR
 6
CONTINUOUS
 62
1
 10
31617.0611155392
 20
24985.3879770937
 30
0.0
 0
SEQEND
 0
POLYLINE
 8
TRAILER
 6
CONTINUOUS
 62
1
 66
1
 10
0.0
 20
0.0
 30
0.0
 70
129
 0
VERTEX
 8
TRAILER
 6
CONTINUOUS
 62
1
 10
32726.6897217966
 20
27330.9073601691
 30
0.0
 0
VERTEX
 8
TRAILER
 6
CONTINUOUS
 62
1
 10
35104.2234201015
 20
26591.0198596497
 30
0.0
 0
VERTEX
 8
TRAILER
 6
CONTINUOUS
 62
1
 10
31244.3283872717
 20
14187.7416504207
 30
0.0
 0
VERTEX
 8
TRAILER
 6
CONTINUOUS
 62
1
 10
28866.7946889668
 20
14927.62915094
 30
0.0
 0
SEQEND
 0
POLYLINE
 8
TRACTOR
 6
CONTINUOUS
 62
1
 66
1
 10
0.0
 20
0.0
 30
0.0
 70
129
 0
VERTEX
 8
TRACTOR
 6
CONTINUOUS
 62
1
 10
35896.8112234664
 20
32494.1701716532
 30
0.0
 0
VERTEX
 8
TRACTOR
 6
CONTINUOUS
 62
1
 10
38056.7826713685
 20
31255.3710175334
 30
0.0
 0
VERTEX
 8
TRACTOR
 6
CONTINUOUS
 62
1
 10
35519.483199075
 20
26831.3331121918
 30
0.0
 0
VERTEX
 8
TRACTOR
 6
CONTINUOUS
 62
1
 10
33359.5117511729
 20
28070.1322663116
 30
0.0
 0
SEQEND
 0
POLYLINE
 8
TRAILER
 6
CONTINUOUS
 62
1
 66
1
 10
0.0
 20
0.0
 30
0.0
 70
129
 0
VERTEX
 8
TRAILER
 6
CONTINUOUS
 62
1
 10
34578.6911482388
 20
30460.0019494757
 30
0.0
 0
VERTEX
 8
TRAILER
 6
CONTINUOUS
 62
1
 10
36894.9573631602
 20
29546.2126840464
 30
0.0
 0
VERTEX
 8
TRAILER
 6
CONTINUOUS
 62
1
 10
32127.8398700172
 20
17462.5588158421
 30
0.0
 0
VERTEX
 8
TRAILER
 6
CONTINUOUS
 62
1
 10
29811.5736550958
 20
18376.3480812713
 30
0.0
 0
SEQEND
 0
POLYLINE
 8
TRACTOR
 6
CONTINUOUS
 62
1
 66
1
 10
0.0
 20
0.0
 30
0.0
 70
129
 0
VERTEX
 8
TRACTOR
 6
CONTINUOUS
 62
1
 10
37666.6680965353
 20
35553.6119514856
 30
0.0
 0
VERTEX
 8
TRACTOR
 6
CONTINUOUS
 62
1
 10
39823.9385150814
 20
34310.1151315195
 30
0.0
 0
VERTEX
 8
TRACTOR
 6
CONTINUOUS
 62
1
 10
37277.0173175603
 20
29891.6094549793
 30
0.0
 0
VERTEX
 8
TRACTOR
 6
CONTINUOUS
 62
1
 10
35119.7468990142
 20
31135.1062749454
 30
0.0
 0
SEQEND
 0
POLYLINE
 8
TRAILER
 6
CONTINUOUS
 62
1
 66
1
 10
0.0
 20
0.0
 30
0.0
 70
129
 0
VERTEX
 8
TRAILER
 6
CONTINUOUS
 62
1
 10
36411.5699738627
 20
33558.4821103218
 30
0.0
 0
VERTEX
 8
TRAILER
 6
CONTINUOUS
 62
1
 10
38679.1625531477
 20
32529.8306171661
 30
0.0
 0
VERTEX
 8
TRAILER
 6
CONTINUOUS
 62
1
 10
33312.8240406602
 20
20700.100655354
 30
0.0
 0
VERTEX
 8
TRAILER
 6
CONTINUOUS
 62
1
 10
31045.2314613752
 20
21728.7521485098
 30
0.0
 0
SEQEND
 0
POLYLINE
 8
TRACTOR
 6
CONTINUOUS
 62
1
 66
1
 10
0.0
 20
0.0
 30
0.0
 70
129
 0
VERTEX
 8
TRACTOR
 6
CONTINUOUS
 62
1
 10
39433.5160355198
 20
38612.4154050463
 30
0.0
 0
VERTEX
 8
TRACTOR
 6
CONTINUOUS
 62
1
 10
41590.1297324384
 20
37367.7799715705
 30
0.0
 0
VERTEX
 8
TRACTOR
 6
CONTINUOUS
 62
1
 10
39040.8764349579
 20
32950.6193875205
 30
0.0
 0
VERTEX
 8
TRACTOR
 6
CONTINUOUS
 62
1
 10
36884.2627380394
 20
34195.2548209963
 30
0.0
 0
SEQEND
 0
POLYLINE
 8
TRAILER
 6
CONTINUOUS
 62
1
 66
1
 10
0.0
 20
0.0
 30
0.0
 70
129
 0
VERTEX
 8
TRAILER
 6
CONTINUOUS
 62
1
 10
38224.4768167813
 20
36640.7821177689
 30
0.0
 0
VERTEX
 8
TRAILER
 6
CONTINUOUS
 62
1
 10
40456.5486378859
 20
35537.1719576894
 30
0.0
 0
VERTEX
 8
TRAILER
 6
CONTINUOUS
 62
1
 10
34699.1606943386
 20
23892.749083734
 30
0.0
 0
VERTEX
 8
TRAILER
 6
CONTINUOUS
 62
1
 10
32467.088873234
 20
24996.3592438136
 30
0.0
 0
SEQEND
 0
POLYLINE
 8
TRACTOR
 6
CONTINUOUS
 62
1
 66
1
 10
0.0
 20
0.0
 30
0.0
 70
129
 0
VERTEX
 8
TRACTOR
 6
CONTINUOUS
 62
1
 10
41199.6338462515
 20
41671.0652479132
 30
0.0
 0
VERTEX
 8
TRACTOR
 6
CONTINUOUS
 62
1
 10
43356.0881535217
 20
40426.1536764929
 30
0.0
 0
VERTEX
 8
TRACTOR
 6
CONTINUOUS
 62
1
 10
40806.2692722995
 20
36009.3195531685
 30
0.0
 0
VERTEX
 8
TRACTOR
 6
CONTINUOUS
 62
1
 10
38649.8149650293
 20
37254.2311245888
 30
0.0
 0
SEQEND
 0
POLYLINE
 8
TRAILER
 6
CONTINUOUS
 62
1
 66
1
 10
0.0
 20
0.0
 30
0.0
 70
129
 0
VERTEX
 8
TRAILER
 6
CONTINUOUS
 62
1
 10
40022.1867069233
 20
39713.9549192579
 30
0.0
 0
VERTEX
 8
TRAILER
 6
CONTINUOUS
 62
1
 10
42229.4339083112
 20
38561.4967673211
 30
0.0
 0
VERTEX
 8
TRAILER
 6
CONTINUOUS
 62
1
 10
36217.2124650751
 20
27046.5806444181
 30
0.0
 0
VERTEX
 8
TRAILER
 6
CONTINUOUS
 62
1
 10
34009.9652636872
 20
28199.0387963548
 30
0.0
 0
SEQEND
 0
POLYLINE
 8
TRACTOR
 6
CONTINUOUS
 62
1
 66
1
 10
0.0
 20
0.0
 30
0.0
 70
129
 0
VERTEX
 8
TRACTOR
 6
CONTINUOUS
 62
1
 10
42965.5745367039
 20
44729.6779020527
 30
0.0
 0
VERTEX
 8
TRACTOR
 6
CONTINUOUS
 62
1
 10
45121.9901759592
 20
43484.6993517254
 30
0.0
 0
VERTEX
 8
TRACTOR
 6
CONTINUOUS
 62
1
 10
42572.0341090236
 20
39067.9444279495
 30
0.0
 0
VERTEX
 8
TRACTOR
 6
CONTINUOUS
 62
1
 10
40415.6184697683
 20
40312.9229782769
 30
0.0
 0
SEQEND
 0
POLYLINE
 8
TRAILER
 6
CONTINUOUS
 62
1
 66
1
 10
0.0
 20
0.0
 30
0.0
 70
129
 0
VERTEX
 8
TRAILER
 6
CONTINUOUS
 62
1
 10
41809.2969325501
 20
42781.7217516548
 30
0.0
 0
VERTEX
 8
TRAILER
 6
CONTINUOUS
 62
1
 10
43999.6017492071
 20
41597.3802425751
 30
0.0
 0
VERTEX
 8
TRAILER
 6
CONTINUOUS
 62
1
 10
37821.049057261
 20
30170.8502954369
 30
0.0
 0
VERTEX
 8
TRAILER
 6
CONTINUOUS
 62
1
 10
35630.744240604
 20
31355.1918045167
 30
0.0
 0
SEQEND
 0
POLYLINE
 8
TRACTOR
 6
CONTINUOUS
 62
1
 66
1
 10
0.0
 20
0.0
 30
0.0
 70
129
 0
VERTEX
 8
TRACTOR
 6
CONTINUOUS
 62
1
 10
44731.4722627105
 20
47788.2815396773
 30
0.0
 0
VERTEX
 8
TRACTOR
 6
CONTINUOUS
 62
1
 10
46887.8785220636
 20
46543.286742651
 30
0.0
 0
VERTEX
 8
TRACTOR
 6
CONTINUOUS
 62
1
 10
44337.8891787569
 20
42126.5510307228
 30
0.0
 0
VERTEX
 8
TRACTOR
 6
CONTINUOUS
 62
1
 10
42181.4829194037
 20
43371.5458277491
 30
0.0
 0
SEQEND
 0
POLYLINE
 8
TRAILER
 6
CONTINUOUS
 62
1
 66
1
 10
0.0
 20
0.0
 30
0.0
 70
129
 0
VERTEX
 8
TRAILER
 6
CONTINUOUS
 62
1
 10
43589.2459705804
 20
45846.1758105624
 30
0.0
 0
VERTEX
 8
TRAILER
 6
CONTINUOUS
 62
1
 10
45768.1461290348
 20
44640.9811791905
 30
0.0
 0
VERTEX
 8
TRAILER
 6
CONTINUOUS
 62
1
 10
39480.8054617574
 20
33273.9478224346
 30
0.0
 0
VERTEX
 8
TRAILER
 6
CONTINUOUS
 62
1
 10
37301.9053033031
 20
34479.1424538065
 30
0.0
 0
SEQEND
 0
LINE
 8
TRACTOR
 6
CONTINUOUS
 62
7
 10
28270.4243690239
 20
2138.85616900868
 30
0.0
 11
28270.4243690239
 21
20099.8149925339
 31
0.0
 0
LINE
 8
TRACTOR
 6
CONTINUOUS
 62
7
 10
32737.1738499743
 20
2138.85616900868
 30
0.0
 11
32737.1738499743
 21
18902.953076321
 31
0.0
 0
LINE
 8
TRACTOR
 6
CONTINUOUS
 62
7
 10
28270.4243690239
 20
20099.8149925339
 30
0.0
 11
45875.1440532765
 21
50592.0839386672
 31
0.0
 0
LINE
 8
TRACTOR
 6
CONTINUOUS
 62
7
 10
32737.1738499743
 20
18902.953076321
 30
0.0
 11
49743.4625761205
 21
48358.709198192
 31
0.0
 0
CIRCLE
 8
SENYUU
 6
CONTINUOUS
 62
7
 10
30552.3244285429
 20
19458.3771808982
 30
0.0
 40
2252.65512585198
 0
ENDSEC
 0
EOF
