 0
SECTION
 2
HEADER
 9
$ACADVER
 1
AC1009
 9
$EXTMIN
 10
0.0
 20
0.0
 9
$EXTMAX
 10
59400.0
 20
42000.0
 9
$LIMMIN
 10
0.0
 20
0.0
 9
$LIMMAX
 10
59400.0
 20
42000.0
 9
$LTSCALE
 40
0.2
 9
$DIMSCALE
 40
10.0
 0
ENDSEC
 0
SECTION
 2
TABLES
 0
TABLE
 2
LTYPE
 70
9
 0
LTYPE
 2
CONTINUOUS
 70
0
 3
Solid line
 72
65
 73
0
 40
0.0
 0
LTYPE
 2
DASH
 70
0
 3
DASH
 72
65
 73
2
 40
7500.0
 49
6000.0
 49
-1500.0
 0
LTYPE
 2
DASHDOT
 70
0
 3
DASHDOT
 72
65
 73
4
 40
18500.0
 49
12000.0
 49
-1500.0
 49
3500.0
 49
-1500.0
 0
LTYPE
 2
DASHDOTDOT
 70
0
 3
DASHDOTDOT
 72
65
 73
6
 40
23500.0
 49
12000.0
 49
-1500.0
 49
3500.0
 49
-1500.0
 49
3500.0
 49
-1500.0
 0
LTYPE
 2
DOT
 70
0
 3
DOT
 72
65
 73
2
 40
1750.0
 49
250.0
 49
-1500.0
 0
LTYPE
 2
DASHED1
 70
0
 3
DASHED1
 72
65
 73
2
 40
5000.0
 49
2500.0
 49
-2500.0
 0
LTYPE
 2
DASHED2
 70
0
 3
DASHED2
 72
65
 73
2
 40
2500.0
 49
1250.0
 49
-1250.0
 0
LTYPE
 2
CENTER1
 70
0
 3
CENTER1
 72
65
 73
4
 40
10000.0
 49
6250.0
 49
-1250.0
 49
1250.0
 49
-1250.0
 0
LTYPE
 2
CENTER2
 70
0
 3
CENTER2
 72
65
 73
6
 40
9500.0
 49
3250.0
 49
-1250.0
 49
1250.0
 49
-1250.0
 49
1250.0
 49
-1250.0
 0
ENDTAB
 0
TABLE
 2
LAYER
 70
9
 0
LAYER
 2
SYSLAYER
 70
0
 62
7
 6
CONTINUOUS
 0
LAYER
 2
SYSLAYER_RST
 70
0
 62
7
 6
CONTINUOUS
 0
LAYER
 2
FUKUIN
 70
0
 62
7
 6
CONTINUOUS
 0
LAYER
 2
TRACTOR
 70
0
 62
1
 6
CONTINUOUS
 0
LAYER
 2
CAR_HATA
 70
0
 62
7
 6
CONTINUOUS
 0
LAYER
 2
SENYUU
 70
0
 62
7
 6
CONTINUOUS
 0
LAYER
 2
HYOU
 70
0
 62
7
 6
CONTINUOUS
 0
LAYER
 2
TRAILER2
 70
0
 62
1
 6
CONTINUOUS
 0
LAYER
 2
TRAILER3
 70
0
 62
1
 6
CONTINUOUS
 0
ENDTAB
 0
TABLE
 2
STYLE
 70
4
 0
STYLE
 2
MTC_FONT0
 70
0
 40
0.0
 41
1.0
 50
0.0
 71
0
 42
602.0
 3
MONOTXT
 4
EXTFONT
 0
STYLE
 2
MTC_FONT1
 70
0
 40
0.0
 41
1.0
 50
0.0
 71
0
 42
602.0
 3
MONOTXT
 4
EXTFONT
 0
STYLE
 2
MTC_FONT2
 70
0
 40
0.0
 41
0.5
 50
0.0
 71
0
 42
1.719999961555
 3
MONOTXT
 4
EXTFONT
 0
STYLE
 2
MTC_FONT3
 70
0
 40
0.0
 41
1.0
 50
0.0
 71
0
 42
0.0
 3
MONOTXT
 4
EXTFONT
 0
ENDTAB
 0
TABLE
 2
DIMSTYLE
 70
0
 0
ENDTAB
 0
ENDSEC
 0
SECTION
 2
BLOCKS
 0
BLOCK
 8
0
 2
MTC_ARROW_NONE
 70
0
 10
0.0
 20
0.0
 30
0.0
 3
MTC_ARROW_NONE
 0
ENDBLK
 8
0
 0
ENDSEC
 0
SECTION
 2
ENTITIES
 0
TEXT
 8
HYOU
 62
7
 10
38000.0
 20
19312.0
 30
0
 11
38000.0
 21
20000.0
 31
0
 40
688.0
 1
タイトル     軌跡図
 41
0.5
 50
0.0
 51
0.0
 7
MTC_FONT2
 72
0
 73
3
 0
TEXT
 8
HYOU
 62
7
 10
38000.0
 20
18312.0
 30
0
 11
38000.0
 21
19000.0
 31
0
 40
688.0
 1
車両名       ウィング15ｔ
 41
0.5
 50
0.0
 51
0.0
 7
MTC_FONT2
 72
0
 73
3
 0
TEXT
 8
HYOU
 62
7
 10
38000.0
 20
17312.0
 30
0
 11
38000.0
 21
18000.0
 31
0
 40
688.0
 1
車種         トラック
 41
0.5
 50
0.0
 51
0.0
 7
MTC_FONT2
 72
0
 73
3
 0
TEXT
 8
HYOU
 62
7
 10
38000.0
 20
16312.0
 30
0
 11
38000.0
 21
17000.0
 31
0
 40
688.0
 1
全長         11995mm
 41
0.5
 50
0.0
 51
0.0
 7
MTC_FONT2
 72
0
 73
3
 0
TEXT
 8
HYOU
 62
7
 10
38000.0
 20
15312.0
 30
0
 11
38000.0
 21
16000.0
 31
0
 40
688.0
 1
車幅         2500mm
 41
0.5
 50
0.0
 51
0.0
 7
MTC_FONT2
 72
0
 73
3
 0
TEXT
 8
HYOU
 62
7
 10
38000.0
 20
14312.0
 30
0
 11
38000.0
 21
15000.0
 31
0
 40
688.0
 1
最小回転半径 10000mm
 41
0.5
 50
0.0
 51
0.0
 7
MTC_FONT2
 72
0
 73
3
 0
TEXT
 8
HYOU
 62
7
 10
38000.0
 20
13312.0
 30
0
 11
38000.0
 21
14000.0
 31
0
 40
688.0
 1
所要道路幅   6600 (6532)mm
 41
0.5
 50
0.0
 51
0.0
 7
MTC_FONT2
 72
0
 73
3
 0
TEXT
 8
HYOU
 62
7
 10
38000.0
 20
12312.0
 30
0
 11
38000.0
 21
13000.0
 31
0
 40
688.0
 1
所要占有幅   5900 (5830)mm
 41
0.5
 50
0.0
 51
0.0
 7
MTC_FONT2
 72
0
 73
3
 0
TEXT
 8
HYOU
 62
7
 10
38000.0
 20
11312.0
 30
0
 11
38000.0
 21
12000.0
 31
0
 40
688.0
 1
旋回方向     右旋回
 41
0.5
 50
0.0
 51
0.0
 7
MTC_FONT2
 72
0
 73
3
 0
TEXT
 8
HYOU
 62
7
 10
38000.0
 20
10312.0
 30
0
 11
38000.0
 21
11000.0
 31
0
 40
688.0
 1
旋回角度     95.000度
 41
0.5
 50
0.0
 51
0.0
 7
MTC_FONT2
 72
0
 73
3
 0
TEXT
 8
HYOU
 62
7
 10
38000.0
 20
9312.0
 30
0
 11
38000.0
 21
10000.0
 31
0
 40
688.0
 1
スケール     1/200
 41
0.5
 50
0.0
 51
0.0
 7
MTC_FONT2
 72
0
 73
3
 0
TEXT
 8
HYOU
 62
7
 10
38000.0
 20
8312.0
 30
0
 11
38000.0
 21
9000.0
 31
0
 40
688.0
 1
作図方法
 41
0.5
 50
0.0
 51
0.0
 7
MTC_FONT2
 72
0
 73
3
 0
TEXT
 8
HYOU
 62
7
 10
38000.0
 20
7312.0
 30
0
 11
38000.0
 21
8000.0
 31
0
 40
688.0
 1
  刻み角     3度
 41
0.5
 50
0.0
 51
0.0
 7
MTC_FONT2
 72
0
 73
3
 0
TEXT
 8
HYOU
 62
7
 10
38000.0
 20
6312.0
 30
0
 11
38000.0
 21
7000.0
 31
0
 40
688.0
 1
  表示間隔   4
 41
0.5
 50
0.0
 51
0.0
 7
MTC_FONT2
 72
0
 73
3
 0
LINE
 8
CAR_HATA
 6
CONTINUOUS
 62
7
 10
17975.9116861982
 20
26597.8285404822
 30
0.0
 11
14725.9116861982
 21
26597.8285404822
 31
0.0
 0
LINE
 8
CAR_HATA
 6
CONTINUOUS
 62
7
 10
17975.9116861982
 20
14602.8285404822
 30
0.0
 11
14725.9116861982
 21
14602.8285404822
 31
0.0
 0
LINE
 8
CAR_HATA
 6
CONTINUOUS
 62
7
 10
14725.9116861982
 20
14602.8285404822
 30
0.0
 11
14725.9116861982
 21
26597.8285404822
 31
0.0
 0
LINE
 8
CAR_HATA
 6
CONTINUOUS
 62
7
 10
14725.9116861982
 20
14602.8285404822
 30
0.0
 11
14494.9715785224
 21
15002.8285404822
 31
0.0
 0
LINE
 8
CAR_HATA
 6
CONTINUOUS
 62
7
 10
14725.9116861982
 20
14602.8285404822
 30
0.0
 11
14956.8517938741
 21
15002.8285404822
 31
0.0
 0
LINE
 8
CAR_HATA
 6
CONTINUOUS
 62
7
 10
14725.9116861982
 20
26597.8285404822
 30
0.0
 11
14494.9715785224
 21
26197.8285404822
 31
0.0
 0
LINE
 8
CAR_HATA
 6
CONTINUOUS
 62
7
 10
14725.9116861982
 20
26597.8285404822
 30
0.0
 11
14956.8517938741
 21
26197.8285404822
 31
0.0
 0
TEXT
 8
CAR_HATA
 62
7
 10
14669.9116861982
 20
20170.3285404822
 30
0
 11
14725.9116861982
 21
20600.3285404822
 31
0
 40
344.0
 1
11995
 41
0.5
 50
90.0
 51
0.0
 7
MTC_FONT2
 72
1
 73
1
 0
LINE
 8
CAR_HATA
 6
CONTINUOUS
 62
7
 10
17975.9116861982
 20
26597.8285404822
 30
0.0
 11
15725.9116861982
 21
26597.8285404822
 31
0.0
 0
LINE
 8
CAR_HATA
 6
CONTINUOUS
 62
7
 10
17975.9116861982
 20
25197.8285404822
 30
0.0
 11
15725.9116861982
 21
25197.8285404822
 31
0.0
 0
LINE
 8
CAR_HATA
 6
CONTINUOUS
 62
7
 10
15725.9116861982
 20
25197.8285404822
 30
0.0
 11
15725.9116861982
 21
26597.8285404822
 31
0.0
 0
LINE
 8
CAR_HATA
 6
CONTINUOUS
 62
7
 10
15725.9116861982
 20
25197.8285404822
 30
0.0
 11
15494.9715785224
 21
25597.8285404822
 31
0.0
 0
LINE
 8
CAR_HATA
 6
CONTINUOUS
 62
7
 10
15725.9116861982
 20
25197.8285404822
 30
0.0
 11
15956.8517938741
 21
25597.8285404822
 31
0.0
 0
LINE
 8
CAR_HATA
 6
CONTINUOUS
 62
7
 10
15725.9116861982
 20
26597.8285404822
 30
0.0
 11
15494.9715785224
 21
26197.8285404822
 31
0.0
 0
LINE
 8
CAR_HATA
 6
CONTINUOUS
 62
7
 10
15725.9116861982
 20
26597.8285404822
 30
0.0
 11
15956.8517938741
 21
26197.8285404822
 31
0.0
 0
TEXT
 8
CAR_HATA
 62
7
 10
15669.9116861982
 20
25553.8285404822
 30
0
 11
15725.9116861982
 21
25897.8285404822
 31
0
 40
344.0
 1
1400
 41
0.5
 50
90.0
 51
0.0
 7
MTC_FONT2
 72
1
 73
1
 0
LINE
 8
CAR_HATA
 6
CONTINUOUS
 62
7
 10
17975.9116861982
 20
25197.8285404822
 30
0.0
 11
15725.9116861982
 21
25197.8285404822
 31
0.0
 0
LINE
 8
CAR_HATA
 6
CONTINUOUS
 62
7
 10
17975.9116861982
 20
18637.8285404822
 30
0.0
 11
15725.9116861982
 21
18637.8285404822
 31
0.0
 0
LINE
 8
CAR_HATA
 6
CONTINUOUS
 62
7
 10
15725.9116861982
 20
18637.8285404822
 30
0.0
 11
15725.9116861982
 21
25197.8285404822
 31
0.0
 0
LINE
 8
CAR_HATA
 6
CONTINUOUS
 62
7
 10
15725.9116861982
 20
18637.8285404822
 30
0.0
 11
15494.9715785224
 21
19037.8285404822
 31
0.0
 0
LINE
 8
CAR_HATA
 6
CONTINUOUS
 62
7
 10
15725.9116861982
 20
18637.8285404822
 30
0.0
 11
15956.8517938741
 21
19037.8285404822
 31
0.0
 0
LINE
 8
CAR_HATA
 6
CONTINUOUS
 62
7
 10
15725.9116861982
 20
25197.8285404822
 30
0.0
 11
15494.9715785224
 21
24797.8285404822
 31
0.0
 0
LINE
 8
CAR_HATA
 6
CONTINUOUS
 62
7
 10
15725.9116861982
 20
25197.8285404822
 30
0.0
 11
15956.8517938741
 21
24797.8285404822
 31
0.0
 0
TEXT
 8
CAR_HATA
 62
7
 10
15669.9116861982
 20
21573.8285404822
 30
0
 11
15725.9116861982
 21
21917.8285404822
 31
0
 40
344.0
 1
6560
 41
0.5
 50
90.0
 51
0.0
 7
MTC_FONT2
 72
1
 73
1
 0
LINE
 8
CAR_HATA
 6
CONTINUOUS
 62
7
 10
17975.9116861982
 20
18637.8285404822
 30
0.0
 11
15725.9116861982
 21
18637.8285404822
 31
0.0
 0
LINE
 8
CAR_HATA
 6
CONTINUOUS
 62
7
 10
17975.9116861982
 20
14602.8285404822
 30
0.0
 11
15725.9116861982
 21
14602.8285404822
 31
0.0
 0
LINE
 8
CAR_HATA
 6
CONTINUOUS
 62
7
 10
15725.9116861982
 20
14602.8285404822
 30
0.0
 11
15725.9116861982
 21
18637.8285404822
 31
0.0
 0
LINE
 8
CAR_HATA
 6
CONTINUOUS
 62
7
 10
15725.9116861982
 20
14602.8285404822
 30
0.0
 11
15494.9715785224
 21
15002.8285404822
 31
0.0
 0
LINE
 8
CAR_HATA
 6
CONTINUOUS
 62
7
 10
15725.9116861982
 20
14602.8285404822
 30
0.0
 11
15956.8517938741
 21
15002.8285404822
 31
0.0
 0
LINE
 8
CAR_HATA
 6
CONTINUOUS
 62
7
 10
15725.9116861982
 20
18637.8285404822
 30
0.0
 11
15494.9715785224
 21
18237.8285404822
 31
0.0
 0
LINE
 8
CAR_HATA
 6
CONTINUOUS
 62
7
 10
15725.9116861982
 20
18637.8285404822
 30
0.0
 11
15956.8517938741
 21
18237.8285404822
 31
0.0
 0
TEXT
 8
CAR_HATA
 62
7
 10
15669.9116861982
 20
16276.3285404822
 30
0
 11
15725.9116861982
 21
16620.3285404822
 31
0
 40
344.0
 1
4035
 41
0.5
 50
90.0
 51
0.0
 7
MTC_FONT2
 72
1
 73
1
 0
LINE
 8
CAR_HATA
 6
CONTINUOUS
 62
7
 10
16725.9116861982
 20
14602.8285404822
 30
0.0
 11
16725.9116861982
 21
13602.8285404822
 31
0.0
 0
LINE
 8
CAR_HATA
 6
CONTINUOUS
 62
7
 10
19225.9116861982
 20
14602.8285404822
 30
0.0
 11
19225.9116861982
 21
13602.8285404822
 31
0.0
 0
LINE
 8
CAR_HATA
 6
CONTINUOUS
 62
7
 10
16725.9116861982
 20
13602.8285404822
 30
0.0
 11
19225.9116861982
 21
13602.8285404822
 31
0.0
 0
LINE
 8
CAR_HATA
 6
CONTINUOUS
 62
7
 10
16725.9116861982
 20
13602.8285404822
 30
0.0
 11
17125.9116861982
 21
13833.768648158
 31
0.0
 0
LINE
 8
CAR_HATA
 6
CONTINUOUS
 62
7
 10
16725.9116861982
 20
13602.8285404822
 30
0.0
 11
17125.9116861982
 21
13371.8884328063
 31
0.0
 0
LINE
 8
CAR_HATA
 6
CONTINUOUS
 62
7
 10
19225.9116861982
 20
13602.8285404822
 30
0.0
 11
18825.9116861982
 21
13833.768648158
 31
0.0
 0
LINE
 8
CAR_HATA
 6
CONTINUOUS
 62
7
 10
19225.9116861982
 20
13602.8285404822
 30
0.0
 11
18825.9116861982
 21
13371.8884328063
 31
0.0
 0
TEXT
 8
CAR_HATA
 62
7
 10
17631.9116861982
 20
13658.8285404822
 30
0
 11
17975.9116861982
 21
13602.8285404822
 31
0
 40
344.0
 1
2500
 41
0.5
 50
0.0
 51
0.0
 7
MTC_FONT2
 72
1
 73
1
 0
LINE
 8
CAR_HATA
 6
CONTINUOUS
 62
7
 10
17025.9116861982
 20
25197.8285404822
 30
0.0
 11
24573.5205790861
 21
18637.8285404822
 31
0.0
 0
LINE
 8
CAR_HATA
 6
CONTINUOUS
 62
7
 10
17025.9116861982
 20
25197.8285404822
 30
0.0
 11
17479.3127525491
 21
25109.733101524
 31
0.0
 0
LINE
 8
CAR_HATA
 6
CONTINUOUS
 62
7
 10
17025.9116861982
 20
25197.8285404822
 30
0.0
 11
17176.3193312784
 21
24761.1239794403
 31
0.0
 0
TEXT
 8
CAR_HATA
 62
7
 10
23701.5244683824
 20
19469.9191502823
 30
0
 11
24573.5205790861
 21
18637.8285404822
 31
0
 40
344.0
 1
R=10000
 41
0.5
 50
319.004481190049
 51
0.0
 7
MTC_FONT2
 72
2
 73
1
 0
ARC
 8
CAR_HATA
 6
CONTINUOUS
 62
7
 10
24573.5205790861
 20
18637.8285404822
 30
0.0
 40
10000.0
 50
129.004481190049
 51
144.004481190049
 0
LINE
 8
CAR_HATA
 6
CONTINUOUS
 62
7
 10
17948.0393345651
 20
27640.5816535156
 30
0.0
 11
21403.3512159389
 21
22945.4782114428
 31
0.0
 0
LINE
 8
CAR_HATA
 6
CONTINUOUS
 62
7
 10
17948.0393345651
 20
27640.5816535156
 30
0.0
 11
18371.1302669378
 21
27455.3051135076
 31
0.0
 0
LINE
 8
CAR_HATA
 6
CONTINUOUS
 62
7
 10
17948.0393345651
 20
27640.5816535156
 30
0.0
 11
17999.1306103792
 21
27181.535887966
 31
0.0
 0
LINE
 8
CAR_HATA
 6
CONTINUOUS
 62
7
 10
21403.3512159389
 20
22945.4782114428
 30
0.0
 11
21352.2599401248
 21
23404.5239769924
 31
0.0
 0
LINE
 8
CAR_HATA
 6
CONTINUOUS
 62
7
 10
21403.3512159389
 20
22945.4782114428
 30
0.0
 11
20980.2602835662
 21
23130.7547514509
 31
0.0
 0
LINE
 8
CAR_HATA
 6
CONTINUOUS
 62
7
 10
16762.5838140981
 20
29251.3874174097
 30
0.0
 11
17948.0393345651
 21
27640.5816535156
 31
0.0
 0
TEXT
 8
CAR_HATA
 62
7
 10
16807.6863754872
 20
29284.5801719828
 30
0
 11
16762.5838140981
 21
29251.3874174097
 31
0
 40
344.0
 1
5900
 41
0.5
 50
306.350818228465
 51
0.0
 7
MTC_FONT2
 72
0
 73
1
 0
LINE
 8
CAR_HATA
 6
CONTINUOUS
 62
7
 10
15749.3981897953
 20
11602.8285404822
 30
0.0
 11
22280.8729845968
 21
11602.8285404822
 31
0.0
 0
LINE
 8
CAR_HATA
 6
CONTINUOUS
 62
7
 10
15749.3981897953
 20
11602.8285404822
 30
0.0
 11
16149.3981897953
 21
11833.768648158
 31
0.0
 0
LINE
 8
CAR_HATA
 6
CONTINUOUS
 62
7
 10
15749.3981897953
 20
11602.8285404822
 30
0.0
 11
16149.3981897953
 21
11371.8884328063
 31
0.0
 0
LINE
 8
CAR_HATA
 6
CONTINUOUS
 62
7
 10
22280.8729845968
 20
11602.8285404822
 30
0.0
 11
21880.8729845968
 21
11833.768648158
 31
0.0
 0
LINE
 8
CAR_HATA
 6
CONTINUOUS
 62
7
 10
22280.8729845968
 20
11602.8285404822
 30
0.0
 11
21880.8729845968
 21
11371.8884328063
 31
0.0
 0
TEXT
 8
CAR_HATA
 62
7
 10
18671.1355871961
 20
11658.8285404822
 30
0
 11
19015.1355871961
 21
11602.8285404822
 31
0
 40
344.0
 1
6600
 41
0.5
 50
0.0
 51
0.0
 7
MTC_FONT2
 72
1
 73
1
 0
LINE
 8
CAR_HATA
 6
CONTINUOUS
 62
7
 10
43940.5738707547
 20
21605.2793162059
 30
0.0
 11
44509.8294077333
 21
28111.899877507
 31
0.0
 0
LINE
 8
CAR_HATA
 6
CONTINUOUS
 62
7
 10
43940.5738707547
 20
21605.2793162059
 30
0.0
 11
43745.3748570104
 21
22023.8849520573
 31
0.0
 0
LINE
 8
CAR_HATA
 6
CONTINUOUS
 62
7
 10
43940.5738707547
 20
21605.2793162059
 30
0.0
 11
44205.4974786972
 21
21983.6294388279
 31
0.0
 0
LINE
 8
CAR_HATA
 6
CONTINUOUS
 62
7
 10
44509.8294077333
 20
28111.899877507
 30
0.0
 11
44244.9057997908
 21
27733.549754885
 31
0.0
 0
LINE
 8
CAR_HATA
 6
CONTINUOUS
 62
7
 10
44509.8294077333
 20
28111.899877507
 30
0.0
 11
44705.0284214776
 21
27693.2942416556
 31
0.0
 0
TEXT
 8
CAR_HATA
 62
7
 10
44139.4331606457
 20
24520.7793423068
 30
0
 11
44225.201639244
 21
24858.5895968564
 31
0
 40
344.0
 1
6600
 41
0.5
 50
85.0
 51
0.0
 7
MTC_FONT2
 72
1
 73
1
 0
POLYLINE
 8
TRACTOR
 6
CONTINUOUS
 62
1
 66
1
 10
0.0
 20
0.0
 30
0.0
 70
129
 0
VERTEX
 8
TRACTOR
 6
CONTINUOUS
 62
1
 10
16725.9116861982
 20
26597.8285404822
 30
0.0
 0
VERTEX
 8
TRACTOR
 6
CONTINUOUS
 62
1
 10
19225.9116861982
 20
26597.8285404822
 30
0.0
 0
VERTEX
 8
TRACTOR
 6
CONTINUOUS
 62
1
 10
19225.9116861982
 20
14602.8285404822
 30
0.0
 0
VERTEX
 8
TRACTOR
 6
CONTINUOUS
 62
1
 10
16725.9116861982
 20
14602.8285404822
 30
0.0
 0
SEQEND
 0
POLYLINE
 8
TRACTOR
 6
CONTINUOUS
 62
1
 66
1
 10
0.0
 20
0.0
 30
0.0
 70
129
 0
VERTEX
 8
TRACTOR
 6
CONTINUOUS
 62
1
 10
18067.7471157503
 20
27727.4642306233
 30
0.0
 0
VERTEX
 8
TRACTOR
 6
CONTINUOUS
 62
1
 10
20536.9679672381
 20
27336.3780680228
 30
0.0
 0
VERTEX
 8
TRACTOR
 6
CONTINUOUS
 62
1
 10
18660.5365590805
 20
15489.0564225841
 30
0.0
 0
VERTEX
 8
TRACTOR
 6
CONTINUOUS
 62
1
 10
16191.3157075927
 20
15880.1425851847
 30
0.0
 0
SEQEND
 0
POLYLINE
 8
TRACTOR
 6
CONTINUOUS
 62
1
 66
1
 10
0.0
 20
0.0
 30
0.0
 70
129
 0
VERTEX
 8
TRACTOR
 6
CONTINUOUS
 62
1
 10
20099.7554002612
 20
28881.4602431776
 30
0.0
 0
VERTEX
 8
TRACTOR
 6
CONTINUOUS
 62
1
 10
22433.7064665042
 20
27985.5403693143
 30
0.0
 0
VERTEX
 8
TRACTOR
 6
CONTINUOUS
 62
1
 10
18135.0829117083
 20
16787.2431534804
 30
0.0
 0
VERTEX
 8
TRACTOR
 6
CONTINUOUS
 62
1
 10
15801.1318454653
 20
17683.1630273436
 30
0.0
 0
SEQEND
 0
POLYLINE
 8
TRACTOR
 6
CONTINUOUS
 62
1
 66
1
 10
0.0
 20
0.0
 30
0.0
 70
129
 0
VERTEX
 8
TRACTOR
 6
CONTINUOUS
 62
1
 10
22327.2886905939
 20
29587.7603959255
 30
0.0
 0
VERTEX
 8
TRACTOR
 6
CONTINUOUS
 62
1
 10
24423.9651104574
 20
28226.162808388
 30
0.0
 0
VERTEX
 8
TRACTOR
 6
CONTINUOUS
 62
1
 10
17891.0198854522
 20
18166.3093458826
 30
0.0
 0
VERTEX
 8
TRACTOR
 6
CONTINUOUS
 62
1
 10
15794.3434655886
 20
19527.9069334202
 30
0.0
 0
SEQEND
 0
POLYLINE
 8
TRACTOR
 6
CONTINUOUS
 62
1
 66
1
 10
0.0
 20
0.0
 30
0.0
 70
129
 0
VERTEX
 8
TRACTOR
 6
CONTINUOUS
 62
1
 10
24652.9930930702
 20
29815.4959829879
 30
0.0
 0
VERTEX
 8
TRACTOR
 6
CONTINUOUS
 62
1
 10
26420.7600460365
 20
28047.7290300216
 30
0.0
 0
VERTEX
 8
TRACTOR
 6
CONTINUOUS
 62
1
 10
17939.0142057039
 20
19565.9831896889
 30
0.0
 0
VERTEX
 8
TRACTOR
 6
CONTINUOUS
 62
1
 10
16171.2472527375
 20
21333.7501426553
 30
0.0
 0
SEQEND
 0
POLYLINE
 8
TRACTOR
 6
CONTINUOUS
 62
1
 66
1
 10
0.0
 20
0.0
 30
0.0
 70
129
 0
VERTEX
 8
TRACTOR
 6
CONTINUOUS
 62
1
 10
26970.6321044031
 20
29623.8426241696
 30
0.0
 0
VERTEX
 8
TRACTOR
 6
CONTINUOUS
 62
1
 10
28347.0606388878
 20
27536.8724544124
 30
0.0
 0
VERTEX
 8
TRACTOR
 6
CONTINUOUS
 62
1
 10
18333.7777643929
 20
20932.7683459547
 30
0.0
 0
VERTEX
 8
TRACTOR
 6
CONTINUOUS
 62
1
 10
16957.3492299082
 20
23019.7385157119
 30
0.0
 0
SEQEND
 0
POLYLINE
 8
TRACTOR
 6
CONTINUOUS
 62
1
 66
1
 10
0.0
 20
0.0
 30
0.0
 70
129
 0
VERTEX
 8
TRACTOR
 6
CONTINUOUS
 62
1
 10
29201.1811355814
 20
29351.3185120824
 30
0.0
 0
VERTEX
 8
TRACTOR
 6
CONTINUOUS
 62
1
 10
30218.6452661832
 20
27067.7321347061
 30
0.0
 0
VERTEX
 8
TRACTOR
 6
CONTINUOUS
 62
1
 10
19261.9978275315
 20
22185.9392360788
 30
0.0
 0
VERTEX
 8
TRACTOR
 6
CONTINUOUS
 62
1
 10
18244.5336969297
 20
24469.5256134552
 30
0.0
 0
SEQEND
 0
POLYLINE
 8
TRACTOR
 6
CONTINUOUS
 62
1
 66
1
 10
0.0
 20
0.0
 30
0.0
 70
129
 0
VERTEX
 8
TRACTOR
 6
CONTINUOUS
 62
1
 10
31352.0283805893
 20
29070.6127644732
 30
0.0
 0
VERTEX
 8
TRACTOR
 6
CONTINUOUS
 62
1
 10
32073.1064912558
 20
26676.8612405431
 30
0.0
 0
VERTEX
 8
TRACTOR
 6
CONTINUOUS
 62
1
 10
20587.8866794392
 20
23217.1284655654
 30
0.0
 0
VERTEX
 8
TRACTOR
 6
CONTINUOUS
 62
1
 10
19866.8085687727
 20
25610.8799894955
 30
0.0
 0
SEQEND
 0
POLYLINE
 8
TRACTOR
 6
CONTINUOUS
 62
1
 66
1
 10
0.0
 20
0.0
 30
0.0
 70
129
 0
VERTEX
 8
TRACTOR
 6
CONTINUOUS
 62
1
 10
33442.0913008564
 20
28799.3598577246
 30
0.0
 0
VERTEX
 8
TRACTOR
 6
CONTINUOUS
 62
1
 10
33930.1009097783
 20
26347.4531258933
 30
0.0
 0
VERTEX
 8
TRACTOR
 6
CONTINUOUS
 62
1
 10
22165.8524104516
 20
24005.9830222857
 30
0.0
 0
VERTEX
 8
TRACTOR
 6
CONTINUOUS
 62
1
 10
21677.8428015296
 20
26457.8897541171
 30
0.0
 0
SEQEND
 0
POLYLINE
 8
TRACTOR
 6
CONTINUOUS
 62
1
 66
1
 10
0.0
 20
0.0
 30
0.0
 70
129
 0
VERTEX
 8
TRACTOR
 6
CONTINUOUS
 62
1
 10
35488.4077176292
 20
28544.0674683331
 30
0.0
 0
VERTEX
 8
TRACTOR
 6
CONTINUOUS
 62
1
 10
35798.0172802131
 20
26063.3131639416
 30
0.0
 0
VERTEX
 8
TRACTOR
 6
CONTINUOUS
 62
1
 10
23895.358127743
 20
24577.806482664
 30
0.0
 0
VERTEX
 8
TRACTOR
 6
CONTINUOUS
 62
1
 10
23585.7485651591
 20
27058.5607870555
 30
0.0
 0
SEQEND
 0
POLYLINE
 8
TRACTOR
 6
CONTINUOUS
 62
1
 66
1
 10
0.0
 20
0.0
 30
0.0
 70
129
 0
VERTEX
 8
TRACTOR
 6
CONTINUOUS
 62
1
 10
37503.9948667412
 20
28305.4527057712
 30
0.0
 0
VERTEX
 8
TRACTOR
 6
CONTINUOUS
 62
1
 10
37679.037074355
 20
25811.5881894925
 30
0.0
 0
VERTEX
 8
TRACTOR
 6
CONTINUOUS
 62
1
 10
25713.4751252502
 20
24971.7356773612
 30
0.0
 0
VERTEX
 8
TRACTOR
 6
CONTINUOUS
 62
1
 10
25538.4329176363
 20
27465.6001936399
 30
0.0
 0
SEQEND
 0
POLYLINE
 8
TRACTOR
 6
CONTINUOUS
 62
1
 66
1
 10
0.0
 20
0.0
 30
0.0
 70
129
 0
VERTEX
 8
TRACTOR
 6
CONTINUOUS
 62
1
 10
39498.1305191269
 20
28081.7559416275
 30
0.0
 0
VERTEX
 8
TRACTOR
 6
CONTINUOUS
 62
1
 10
39572.4588626816
 20
25582.8611264453
 30
0.0
 0
VERTEX
 8
TRACTOR
 6
CONTINUOUS
 62
1
 10
27582.7615394375
 20
25226.2337340698
 30
0.0
 0
VERTEX
 8
TRACTOR
 6
CONTINUOUS
 62
1
 10
27508.4331958827
 20
27725.128549252
 30
0.0
 0
SEQEND
 0
POLYLINE
 8
TRACTOR
 6
CONTINUOUS
 62
1
 66
1
 10
0.0
 20
0.0
 30
0.0
 70
129
 0
VERTEX
 8
TRACTOR
 6
CONTINUOUS
 62
1
 10
41477.2463669441
 20
27870.4568458296
 30
0.0
 0
VERTEX
 8
TRACTOR
 6
CONTINUOUS
 62
1
 10
41476.5042044202
 20
25370.4569559906
 30
0.0
 0
VERTEX
 8
TRACTOR
 6
CONTINUOUS
 62
1
 10
29481.5047329729
 20
25374.0178517805
 30
0.0
 0
VERTEX
 8
TRACTOR
 6
CONTINUOUS
 62
1
 10
29482.2468954968
 20
27874.0177416194
 30
0.0
 0
SEQEND
 0
LINE
 8
FUKUIN
 6
CONTINUOUS
 62
7
 10
15749.3981897953
 20
11602.8285404822
 30
0.0
 11
15749.3981897953
 21
30628.1115671937
 31
0.0
 0
LINE
 8
FUKUIN
 6
CONTINUOUS
 62
7
 10
22280.8729845968
 20
11602.8285404822
 30
0.0
 11
22280.8729845968
 21
23500.2575991071
 31
0.0
 0
LINE
 8
FUKUIN
 6
CONTINUOUS
 62
7
 10
15749.3981897953
 20
30628.1115671937
 30
0.0
 11
44509.8294077333
 21
28111.899877507
 31
0.0
 0
LINE
 8
FUKUIN
 6
CONTINUOUS
 62
7
 10
22280.8729845968
 20
23500.2575991071
 30
0.0
 11
43940.5738707547
 21
21605.2793162059
 31
0.0
 0
CIRCLE
 8
SENYUU
 6
CONTINUOUS
 62
7
 10
19675.695275252
 20
25293.0299324792
 30
0.0
 40
2914.75455781984
 0
ENDSEC
 0
EOF
