 0
SECTION
 2
HEADER
 9
$ACADVER
 1
AC1009
 9
$EXTMIN
 10
0.0
 20
0.0
 9
$EXTMAX
 10
2227500.0
 20
1575000.0
 9
$LIMMIN
 10
0.0
 20
0.0
 9
$LIMMAX
 10
2227500.0
 20
1575000.0
 9
$LTSCALE
 40
7.5
 9
$DIMSCALE
 40
10.0
 0
ENDSEC
 0
SECTION
 2
TABLES
 0
TABLE
 2
LTYPE
 70
9
 0
LTYPE
 2
CONTINUOUS
 70
0
 3
Solid line
 72
65
 73
0
 40
0.0
 0
LTYPE
 2
DASH
 70
0
 3
DASH
 72
65
 73
2
 40
7500.0
 49
6000.0
 49
-1500.0
 0
LTYPE
 2
DASHDOT
 70
0
 3
DASHDOT
 72
65
 73
4
 40
18500.0
 49
12000.0
 49
-1500.0
 49
3500.0
 49
-1500.0
 0
LTYPE
 2
DASHDOTDOT
 70
0
 3
DASHDOTDOT
 72
65
 73
6
 40
23500.0
 49
12000.0
 49
-1500.0
 49
3500.0
 49
-1500.0
 49
3500.0
 49
-1500.0
 0
LTYPE
 2
DOT
 70
0
 3
DOT
 72
65
 73
2
 40
1750.0
 49
250.0
 49
-1500.0
 0
LTYPE
 2
DASHED1
 70
0
 3
DASHED1
 72
65
 73
2
 40
5000.0
 49
2500.0
 49
-2500.0
 0
LTYPE
 2
DASHED2
 70
0
 3
DASHED2
 72
65
 73
2
 40
2500.0
 49
1250.0
 49
-1250.0
 0
LTYPE
 2
CENTER1
 70
0
 3
CENTER1
 72
65
 73
4
 40
10000.0
 49
6250.0
 49
-1250.0
 49
1250.0
 49
-1250.0
 0
LTYPE
 2
CENTER2
 70
0
 3
CENTER2
 72
65
 73
6
 40
9500.0
 49
3250.0
 49
-1250.0
 49
1250.0
 49
-1250.0
 49
1250.0
 49
-1250.0
 0
ENDTAB
 0
TABLE
 2
LAYER
 70
9
 0
LAYER
 2
SYSLAYER
 70
0
 62
7
 6
CONTINUOUS
 0
LAYER
 2
SYSLAYER_RST
 70
0
 62
7
 6
CONTINUOUS
 0
LAYER
 2
TRACTOR
 70
0
 62
1
 6
CONTINUOUS
 0
LAYER
 2
FUKUIN
 70
0
 62
7
 6
CONTINUOUS
 0
LAYER
 2
CAR_HATA
 70
0
 62
7
 6
CONTINUOUS
 0
LAYER
 2
SENYUU
 70
0
 62
7
 6
CONTINUOUS
 0
LAYER
 2
HYOU
 70
0
 62
7
 6
CONTINUOUS
 0
LAYER
 2
TRAILER2
 70
0
 62
1
 6
CONTINUOUS
 0
LAYER
 2
TRAILER3
 70
0
 62
1
 6
CONTINUOUS
 0
ENDTAB
 0
TABLE
 2
STYLE
 70
4
 0
STYLE
 2
MTC_FONT0
 70
0
 40
0.0
 41
1.0
 50
0.0
 71
0
 42
22575.0
 3
MONOTXT
 4
EXTFONT
 0
STYLE
 2
MTC_FONT1
 70
0
 40
0.0
 41
1.0
 50
0.0
 71
0
 42
22575.0
 3
MONOTXT
 4
EXTFONT
 0
STYLE
 2
MTC_FONT2
 70
0
 40
0.0
 41
0.5
 50
0.0
 71
0
 42
64.4999985583127
 3
MONOTXT
 4
EXTFONT
 0
STYLE
 2
MTC_FONT3
 70
0
 40
0.0
 41
1.0
 50
0.0
 71
0
 42
0.0
 3
MONOTXT
 4
EXTFONT
 0
ENDTAB
 0
TABLE
 2
DIMSTYLE
 70
0
 0
ENDTAB
 0
ENDSEC
 0
SECTION
 2
BLOCKS
 0
BLOCK
 8
0
 2
MTC_ARROW_NONE
 70
0
 10
0.0
 20
0.0
 30
0.0
 3
MTC_ARROW_NONE
 0
ENDBLK
 8
0
 0
ENDSEC
 0
SECTION
 2
ENTITIES
 0
TEXT
 8
HYOU
 62
7
 10
1425000.0
 20
724200.0
 30
0
 11
1425000.0
 21
750000.0
 31
0
 40
25800.0
 1
タイトル     軌跡図
 41
0.5
 50
0.0
 51
0.0
 7
MTC_FONT2
 72
0
 73
3
 0
TEXT
 8
HYOU
 62
7
 10
1425000.0
 20
686700.0
 30
0
 11
1425000.0
 21
712500.0
 31
0
 40
25800.0
 1
車両名       ウィング15ｔ
 41
0.5
 50
0.0
 51
0.0
 7
MTC_FONT2
 72
0
 73
3
 0
TEXT
 8
HYOU
 62
7
 10
1425000.0
 20
649200.0
 30
0
 11
1425000.0
 21
675000.0
 31
0
 40
25800.0
 1
車種         トラック
 41
0.5
 50
0.0
 51
0.0
 7
MTC_FONT2
 72
0
 73
3
 0
TEXT
 8
HYOU
 62
7
 10
1425000.0
 20
611700.0
 30
0
 11
1425000.0
 21
637500.0
 31
0
 40
25800.0
 1
全長         11995mm
 41
0.5
 50
0.0
 51
0.0
 7
MTC_FONT2
 72
0
 73
3
 0
TEXT
 8
HYOU
 62
7
 10
1425000.0
 20
574200.0
 30
0
 11
1425000.0
 21
600000.0
 31
0
 40
25800.0
 1
車幅         2500mm
 41
0.5
 50
0.0
 51
0.0
 7
MTC_FONT2
 72
0
 73
3
 0
TEXT
 8
HYOU
 62
7
 10
1425000.0
 20
536700.0
 30
0
 11
1425000.0
 21
562500.0
 31
0
 40
25800.0
 1
最小回転半径 10000mm
 41
0.5
 50
0.0
 51
0.0
 7
MTC_FONT2
 72
0
 73
3
 0
TEXT
 8
HYOU
 62
7
 10
1425000.0
 20
499200.0
 30
0
 11
1425000.0
 21
525000.0
 31
0
 40
25800.0
 1
所要道路幅   10000 (9955)mm
 41
0.5
 50
0.0
 51
0.0
 7
MTC_FONT2
 72
0
 73
3
 0
TEXT
 8
HYOU
 62
7
 10
1425000.0
 20
461700.0
 30
0
 11
1425000.0
 21
487500.0
 31
0
 40
25800.0
 1
所要占有幅   5900 (5831)mm
 41
0.5
 50
0.0
 51
0.0
 7
MTC_FONT2
 72
0
 73
3
 0
TEXT
 8
HYOU
 62
7
 10
1425000.0
 20
424200.0
 30
0
 11
1425000.0
 21
450000.0
 31
0
 40
25800.0
 1
旋回方向     右旋回
 41
0.5
 50
0.0
 51
0.0
 7
MTC_FONT2
 72
0
 73
3
 0
TEXT
 8
HYOU
 62
7
 10
1425000.0
 20
386700.0
 30
0
 11
1425000.0
 21
412500.0
 31
0
 40
25800.0
 1
旋回角度     179.000度
 41
0.5
 50
0.0
 51
0.0
 7
MTC_FONT2
 72
0
 73
3
 0
TEXT
 8
HYOU
 62
7
 10
1425000.0
 20
349200.0
 30
0
 11
1425000.0
 21
375000.0
 31
0
 40
25800.0
 1
スケール     1/7500
 41
0.5
 50
0.0
 51
0.0
 7
MTC_FONT2
 72
0
 73
3
 0
TEXT
 8
HYOU
 62
7
 10
1425000.0
 20
311700.0
 30
0
 11
1425000.0
 21
337500.0
 31
0
 40
25800.0
 1
作図方法
 41
0.5
 50
0.0
 51
0.0
 7
MTC_FONT2
 72
0
 73
3
 0
TEXT
 8
HYOU
 62
7
 10
1425000.0
 20
274200.0
 30
0
 11
1425000.0
 21
300000.0
 31
0
 40
25800.0
 1
  刻み角     3度
 41
0.5
 50
0.0
 51
0.0
 7
MTC_FONT2
 72
0
 73
3
 0
TEXT
 8
HYOU
 62
7
 10
1425000.0
 20
236700.0
 30
0
 11
1425000.0
 21
262500.0
 31
0
 40
25800.0
 1
  表示間隔   4
 41
0.5
 50
0.0
 51
0.0
 7
MTC_FONT2
 72
0
 73
3
 0
LINE
 8
CAR_HATA
 6
CONTINUOUS
 62
7
 10
1102688.62405337
 20
232137.264560438
 30
0.0
 11
1099438.62405337
 21
232137.264560438
 31
0.0
 0
LINE
 8
CAR_HATA
 6
CONTINUOUS
 62
7
 10
1102688.62405337
 20
220142.264560438
 30
0.0
 11
1099438.62405337
 21
220142.264560438
 31
0.0
 0
LINE
 8
CAR_HATA
 6
CONTINUOUS
 62
7
 10
1099438.62405337
 20
220142.264560438
 30
0.0
 11
1099438.62405337
 21
232137.264560438
 31
0.0
 0
LINE
 8
CAR_HATA
 6
CONTINUOUS
 62
7
 10
1099438.62405337
 20
220142.264560438
 30
0.0
 11
1099207.6839457
 21
220542.264560438
 31
0.0
 0
LINE
 8
CAR_HATA
 6
CONTINUOUS
 62
7
 10
1099438.62405337
 20
220142.264560438
 30
0.0
 11
1099669.56416105
 21
220542.264560438
 31
0.0
 0
LINE
 8
CAR_HATA
 6
CONTINUOUS
 62
7
 10
1099438.62405337
 20
232137.264560438
 30
0.0
 11
1099207.6839457
 21
231737.264560438
 31
0.0
 0
LINE
 8
CAR_HATA
 6
CONTINUOUS
 62
7
 10
1099438.62405337
 20
232137.264560438
 30
0.0
 11
1099669.56416105
 21
231737.264560438
 31
0.0
 0
TEXT
 8
CAR_HATA
 62
7
 10
1097338.62405337
 20
210014.764560438
 30
0
 11
1099438.62405337
 21
226139.764560438
 31
0
 40
12900.0
 1
11995
 41
0.5
 50
90.0
 51
0.0
 7
MTC_FONT2
 72
1
 73
1
 0
LINE
 8
CAR_HATA
 6
CONTINUOUS
 62
7
 10
1102688.62405337
 20
232137.264560438
 30
0.0
 11
1100438.62405337
 21
232137.264560438
 31
0.0
 0
LINE
 8
CAR_HATA
 6
CONTINUOUS
 62
7
 10
1102688.62405337
 20
230737.264560438
 30
0.0
 11
1100438.62405337
 21
230737.264560438
 31
0.0
 0
LINE
 8
CAR_HATA
 6
CONTINUOUS
 62
7
 10
1100438.62405337
 20
230737.264560438
 30
0.0
 11
1100438.62405337
 21
232137.264560438
 31
0.0
 0
LINE
 8
CAR_HATA
 6
CONTINUOUS
 62
7
 10
1100438.62405337
 20
230737.264560438
 30
0.0
 11
1100207.6839457
 21
231137.264560438
 31
0.0
 0
LINE
 8
CAR_HATA
 6
CONTINUOUS
 62
7
 10
1100438.62405337
 20
230737.264560438
 30
0.0
 11
1100669.56416105
 21
231137.264560438
 31
0.0
 0
LINE
 8
CAR_HATA
 6
CONTINUOUS
 62
7
 10
1100438.62405337
 20
232137.264560438
 30
0.0
 11
1100207.6839457
 21
231737.264560438
 31
0.0
 0
LINE
 8
CAR_HATA
 6
CONTINUOUS
 62
7
 10
1100438.62405337
 20
232137.264560438
 30
0.0
 11
1100669.56416105
 21
231737.264560438
 31
0.0
 0
TEXT
 8
CAR_HATA
 62
7
 10
1098338.62405337
 20
218537.264560438
 30
0
 11
1100438.62405337
 21
231437.264560438
 31
0
 40
12900.0
 1
1400
 41
0.5
 50
90.0
 51
0.0
 7
MTC_FONT2
 72
1
 73
1
 0
LINE
 8
CAR_HATA
 6
CONTINUOUS
 62
7
 10
1102688.62405337
 20
230737.264560438
 30
0.0
 11
1100438.62405337
 21
230737.264560438
 31
0.0
 0
LINE
 8
CAR_HATA
 6
CONTINUOUS
 62
7
 10
1102688.62405337
 20
224177.264560438
 30
0.0
 11
1100438.62405337
 21
224177.264560438
 31
0.0
 0
LINE
 8
CAR_HATA
 6
CONTINUOUS
 62
7
 10
1100438.62405337
 20
224177.264560438
 30
0.0
 11
1100438.62405337
 21
230737.264560438
 31
0.0
 0
LINE
 8
CAR_HATA
 6
CONTINUOUS
 62
7
 10
1100438.62405337
 20
224177.264560438
 30
0.0
 11
1100207.6839457
 21
224577.264560438
 31
0.0
 0
LINE
 8
CAR_HATA
 6
CONTINUOUS
 62
7
 10
1100438.62405337
 20
224177.264560438
 30
0.0
 11
1100669.56416105
 21
224577.264560438
 31
0.0
 0
LINE
 8
CAR_HATA
 6
CONTINUOUS
 62
7
 10
1100438.62405337
 20
230737.264560438
 30
0.0
 11
1100207.6839457
 21
230337.264560438
 31
0.0
 0
LINE
 8
CAR_HATA
 6
CONTINUOUS
 62
7
 10
1100438.62405337
 20
230737.264560438
 30
0.0
 11
1100669.56416105
 21
230337.264560438
 31
0.0
 0
TEXT
 8
CAR_HATA
 62
7
 10
1098338.62405337
 20
214557.264560438
 30
0
 11
1100438.62405337
 21
227457.264560438
 31
0
 40
12900.0
 1
6560
 41
0.5
 50
90.0
 51
0.0
 7
MTC_FONT2
 72
1
 73
1
 0
LINE
 8
CAR_HATA
 6
CONTINUOUS
 62
7
 10
1102688.62405337
 20
224177.264560438
 30
0.0
 11
1100438.62405337
 21
224177.264560438
 31
0.0
 0
LINE
 8
CAR_HATA
 6
CONTINUOUS
 62
7
 10
1102688.62405337
 20
220142.264560438
 30
0.0
 11
1100438.62405337
 21
220142.264560438
 31
0.0
 0
LINE
 8
CAR_HATA
 6
CONTINUOUS
 62
7
 10
1100438.62405337
 20
220142.264560438
 30
0.0
 11
1100438.62405337
 21
224177.264560438
 31
0.0
 0
LINE
 8
CAR_HATA
 6
CONTINUOUS
 62
7
 10
1100438.62405337
 20
220142.264560438
 30
0.0
 11
1100207.6839457
 21
220542.264560438
 31
0.0
 0
LINE
 8
CAR_HATA
 6
CONTINUOUS
 62
7
 10
1100438.62405337
 20
220142.264560438
 30
0.0
 11
1100669.56416105
 21
220542.264560438
 31
0.0
 0
LINE
 8
CAR_HATA
 6
CONTINUOUS
 62
7
 10
1100438.62405337
 20
224177.264560438
 30
0.0
 11
1100207.6839457
 21
223777.264560438
 31
0.0
 0
LINE
 8
CAR_HATA
 6
CONTINUOUS
 62
7
 10
1100438.62405337
 20
224177.264560438
 30
0.0
 11
1100669.56416105
 21
223777.264560438
 31
0.0
 0
TEXT
 8
CAR_HATA
 62
7
 10
1098338.62405337
 20
209259.764560438
 30
0
 11
1100438.62405337
 21
222159.764560438
 31
0
 40
12900.0
 1
4035
 41
0.5
 50
90.0
 51
0.0
 7
MTC_FONT2
 72
1
 73
1
 0
LINE
 8
CAR_HATA
 6
CONTINUOUS
 62
7
 10
1101438.62405337
 20
220142.264560438
 30
0.0
 11
1101438.62405337
 21
219142.264560438
 31
0.0
 0
LINE
 8
CAR_HATA
 6
CONTINUOUS
 62
7
 10
1103938.62405337
 20
220142.264560438
 30
0.0
 11
1103938.62405337
 21
219142.264560438
 31
0.0
 0
LINE
 8
CAR_HATA
 6
CONTINUOUS
 62
7
 10
1101438.62405337
 20
219142.264560438
 30
0.0
 11
1103938.62405337
 21
219142.264560438
 31
0.0
 0
LINE
 8
CAR_HATA
 6
CONTINUOUS
 62
7
 10
1101438.62405337
 20
219142.264560438
 30
0.0
 11
1101838.62405337
 21
219373.204668114
 31
0.0
 0
LINE
 8
CAR_HATA
 6
CONTINUOUS
 62
7
 10
1101438.62405337
 20
219142.264560438
 30
0.0
 11
1101838.62405337
 21
218911.324452763
 31
0.0
 0
LINE
 8
CAR_HATA
 6
CONTINUOUS
 62
7
 10
1103938.62405337
 20
219142.264560438
 30
0.0
 11
1103538.62405337
 21
219373.204668114
 31
0.0
 0
LINE
 8
CAR_HATA
 6
CONTINUOUS
 62
7
 10
1103938.62405337
 20
219142.264560438
 30
0.0
 11
1103538.62405337
 21
218911.324452763
 31
0.0
 0
TEXT
 8
CAR_HATA
 62
7
 10
1089788.62405337
 20
221242.264560438
 30
0
 11
1102688.62405337
 21
219142.264560438
 31
0
 40
12900.0
 1
2500
 41
0.5
 50
0.0
 51
0.0
 7
MTC_FONT2
 72
1
 73
1
 0
LINE
 8
CAR_HATA
 6
CONTINUOUS
 62
7
 10
1101738.62405337
 20
230737.264560438
 30
0.0
 11
1109286.23294626
 21
224177.264560438
 31
0.0
 0
LINE
 8
CAR_HATA
 6
CONTINUOUS
 62
7
 10
1101738.62405337
 20
230737.264560438
 30
0.0
 11
1102192.02511972
 21
230649.16912148
 31
0.0
 0
LINE
 8
CAR_HATA
 6
CONTINUOUS
 62
7
 10
1101738.62405337
 20
230737.264560438
 30
0.0
 11
1101889.03169845
 21
230300.559999397
 31
0.0
 0
TEXT
 8
CAR_HATA
 62
7
 10
1076586.37879487
 20
255380.662427945
 30
0
 11
1109286.23294626
 21
224177.264560438
 31
0
 40
12900.0
 1
R=10000
 41
0.5
 50
319.004481190049
 51
0.0
 7
MTC_FONT2
 72
2
 73
1
 0
ARC
 8
CAR_HATA
 6
CONTINUOUS
 62
7
 10
1109286.23294626
 20
224177.264560438
 30
0.0
 40
10000.0
 50
129.004481190049
 51
144.004481190049
 0
LINE
 8
CAR_HATA
 6
CONTINUOUS
 62
7
 10
1109200.15702033
 20
235354.883102449
 30
0.0
 11
1109245.05240452
 21
229524.873453326
 31
0.0
 0
LINE
 8
CAR_HATA
 6
CONTINUOUS
 62
7
 10
1109200.15702033
 20
235354.883102449
 30
0.0
 11
1109434.17048515
 21
234956.673319024
 31
0.0
 0
LINE
 8
CAR_HATA
 6
CONTINUOUS
 62
7
 10
1109200.15702033
 20
235354.883102449
 30
0.0
 11
1108972.30396426
 21
234953.116605374
 31
0.0
 0
LINE
 8
CAR_HATA
 6
CONTINUOUS
 62
7
 10
1109245.05240452
 20
229524.873453326
 30
0.0
 11
1109472.90546059
 21
229926.639950402
 31
0.0
 0
LINE
 8
CAR_HATA
 6
CONTINUOUS
 62
7
 10
1109245.05240452
 20
229524.873453326
 30
0.0
 11
1109011.0389397
 21
229923.083236752
 31
0.0
 0
LINE
 8
CAR_HATA
 6
CONTINUOUS
 62
7
 10
1109184.75599845
 20
237354.823803702
 30
0.0
 11
1109200.15702033
 21
235354.883102449
 31
0.0
 0
TEXT
 8
CAR_HATA
 62
7
 10
1111284.69373477
 20
237370.99487667
 30
0
 11
1109184.75599845
 21
237354.823803702
 31
0
 40
12900.0
 1
5900
 41
0.5
 50
270.44121113736
 51
0.0
 7
MTC_FONT2
 72
0
 73
1
 0
LINE
 8
CAR_HATA
 6
CONTINUOUS
 62
7
 10
1100462.11055697
 20
217142.264560438
 30
0.0
 11
1110416.43902787
 21
217142.264560438
 31
0.0
 0
LINE
 8
CAR_HATA
 6
CONTINUOUS
 62
7
 10
1100462.11055697
 20
217142.264560438
 30
0.0
 11
1100862.11055697
 21
217373.204668114
 31
0.0
 0
LINE
 8
CAR_HATA
 6
CONTINUOUS
 62
7
 10
1100462.11055697
 20
217142.264560438
 30
0.0
 11
1100862.11055697
 21
216911.324452763
 31
0.0
 0
LINE
 8
CAR_HATA
 6
CONTINUOUS
 62
7
 10
1110416.43902787
 20
217142.264560438
 30
0.0
 11
1110016.43902787
 21
217373.204668114
 31
0.0
 0
LINE
 8
CAR_HATA
 6
CONTINUOUS
 62
7
 10
1110416.43902787
 20
217142.264560438
 30
0.0
 11
1110016.43902787
 21
216911.324452763
 31
0.0
 0
TEXT
 8
CAR_HATA
 62
7
 10
1089314.27479242
 20
219242.264560438
 30
0
 11
1105439.27479242
 21
217142.264560438
 31
0
 40
12900.0
 1
10000
 41
0.5
 50
0.00000000000017
 51
0.0
 7
MTC_FONT2
 72
1
 73
1
 0
LINE
 8
CAR_HATA
 6
CONTINUOUS
 62
7
 10
1110839.50367584
 20
205166.752048988
 30
0.0
 11
1120792.3160543
 21
205340.479035272
 31
0.0
 0
LINE
 8
CAR_HATA
 6
CONTINUOUS
 62
7
 10
1110839.50367584
 20
205166.752048988
 30
0.0
 11
1111235.41229328
 21
205404.637945942
 31
0.0
 0
LINE
 8
CAR_HATA
 6
CONTINUOUS
 62
7
 10
1110839.50367584
 20
205166.752048988
 30
0.0
 11
1111243.47321453
 21
204942.828077184
 31
0.0
 0
LINE
 8
CAR_HATA
 6
CONTINUOUS
 62
7
 10
1120792.3160543
 20
205340.479035272
 30
0.0
 11
1120388.34651562
 21
205564.403007076
 31
0.0
 0
LINE
 8
CAR_HATA
 6
CONTINUOUS
 62
7
 10
1120792.3160543
 20
205340.479035272
 30
0.0
 11
1120396.40743686
 21
205102.593138319
 31
0.0
 0
TEXT
 8
CAR_HATA
 62
7
 10
1099656.71572716
 20
207071.875648157
 30
0
 11
1115815.90986507
 21
205253.61554213
 31
0
 40
12900.0
 1
10000
 41
0.5
 50
0.99999999999977
 51
0.0
 7
MTC_FONT2
 72
1
 73
1
 0
POLYLINE
 8
TRACTOR
 6
CONTINUOUS
 62
1
 66
1
 10
0.0
 20
0.0
 30
0.0
 70
129
 0
VERTEX
 8
TRACTOR
 6
CONTINUOUS
 62
1
 10
1101438.62405337
 20
232137.264560438
 30
0.0
 0
VERTEX
 8
TRACTOR
 6
CONTINUOUS
 62
1
 10
1103938.62405337
 20
232137.264560438
 30
0.0
 0
VERTEX
 8
TRACTOR
 6
CONTINUOUS
 62
1
 10
1103938.62405337
 20
220142.264560438
 30
0.0
 0
VERTEX
 8
TRACTOR
 6
CONTINUOUS
 62
1
 10
1101438.62405337
 20
220142.264560438
 30
0.0
 0
SEQEND
 0
POLYLINE
 8
TRACTOR
 6
CONTINUOUS
 62
1
 66
1
 10
0.0
 20
0.0
 30
0.0
 70
129
 0
VERTEX
 8
TRACTOR
 6
CONTINUOUS
 62
1
 10
1102780.45948293
 20
233266.90025058
 30
0.0
 0
VERTEX
 8
TRACTOR
 6
CONTINUOUS
 62
1
 10
1105249.68033441
 20
232875.814087979
 30
0.0
 0
VERTEX
 8
TRACTOR
 6
CONTINUOUS
 62
1
 10
1103373.24892626
 20
221028.49244254
 30
0.0
 0
VERTEX
 8
TRACTOR
 6
CONTINUOUS
 62
1
 10
1100904.02807477
 20
221419.578605141
 30
0.0
 0
SEQEND
 0
POLYLINE
 8
TRACTOR
 6
CONTINUOUS
 62
1
 66
1
 10
0.0
 20
0.0
 30
0.0
 70
129
 0
VERTEX
 8
TRACTOR
 6
CONTINUOUS
 62
1
 10
1104812.46776744
 20
234420.896263134
 30
0.0
 0
VERTEX
 8
TRACTOR
 6
CONTINUOUS
 62
1
 10
1107146.41883368
 20
233524.976389271
 30
0.0
 0
VERTEX
 8
TRACTOR
 6
CONTINUOUS
 62
1
 10
1102847.79527888
 20
222326.679173437
 30
0.0
 0
VERTEX
 8
TRACTOR
 6
CONTINUOUS
 62
1
 10
1100513.84421264
 20
223222.5990473
 30
0.0
 0
SEQEND
 0
POLYLINE
 8
TRACTOR
 6
CONTINUOUS
 62
1
 66
1
 10
0.0
 20
0.0
 30
0.0
 70
129
 0
VERTEX
 8
TRACTOR
 6
CONTINUOUS
 62
1
 10
1107040.00105777
 20
235127.196415882
 30
0.0
 0
VERTEX
 8
TRACTOR
 6
CONTINUOUS
 62
1
 10
1109136.67747763
 20
233765.598828344
 30
0.0
 0
VERTEX
 8
TRACTOR
 6
CONTINUOUS
 62
1
 10
1102603.73225263
 20
223705.745365839
 30
0.0
 0
VERTEX
 8
TRACTOR
 6
CONTINUOUS
 62
1
 10
1100507.05583276
 20
225067.342953376
 30
0.0
 0
SEQEND
 0
POLYLINE
 8
TRACTOR
 6
CONTINUOUS
 62
1
 66
1
 10
0.0
 20
0.0
 30
0.0
 70
129
 0
VERTEX
 8
TRACTOR
 6
CONTINUOUS
 62
1
 10
1109365.70546025
 20
235354.932002944
 30
0.0
 0
VERTEX
 8
TRACTOR
 6
CONTINUOUS
 62
1
 10
1111133.47241321
 20
233587.165049978
 30
0.0
 0
VERTEX
 8
TRACTOR
 6
CONTINUOUS
 62
1
 10
1102651.72657288
 20
225105.419209645
 30
0.0
 0
VERTEX
 8
TRACTOR
 6
CONTINUOUS
 62
1
 10
1100883.95961991
 20
226873.186162612
 30
0.0
 0
SEQEND
 0
POLYLINE
 8
TRACTOR
 6
CONTINUOUS
 62
1
 66
1
 10
0.0
 20
0.0
 30
0.0
 70
129
 0
VERTEX
 8
TRACTOR
 6
CONTINUOUS
 62
1
 10
1111687.93653251
 20
235094.14988637
 30
0.0
 0
VERTEX
 8
TRACTOR
 6
CONTINUOUS
 62
1
 10
1113049.53412005
 20
232997.473466506
 30
0.0
 0
VERTEX
 8
TRACTOR
 6
CONTINUOUS
 62
1
 10
1102989.68065754
 20
226464.528241501
 30
0.0
 0
VERTEX
 8
TRACTOR
 6
CONTINUOUS
 62
1
 10
1101628.08307
 20
228561.204661365
 30
0.0
 0
SEQEND
 0
POLYLINE
 8
TRACTOR
 6
CONTINUOUS
 62
1
 66
1
 10
0.0
 20
0.0
 30
0.0
 70
129
 0
VERTEX
 8
TRACTOR
 6
CONTINUOUS
 62
1
 10
1113905.2016334
 20
234356.247496025
 30
0.0
 0
VERTEX
 8
TRACTOR
 6
CONTINUOUS
 62
1
 10
1114801.12150727
 20
232022.296429782
 30
0.0
 0
VERTEX
 8
TRACTOR
 6
CONTINUOUS
 62
1
 10
1103602.82429143
 20
227723.672874986
 30
0.0
 0
VERTEX
 8
TRACTOR
 6
CONTINUOUS
 62
1
 10
1102706.90441757
 20
230057.623941229
 30
0.0
 0
SEQEND
 0
POLYLINE
 8
TRACTOR
 6
CONTINUOUS
 62
1
 66
1
 10
0.0
 20
0.0
 30
0.0
 70
129
 0
VERTEX
 8
TRACTOR
 6
CONTINUOUS
 62
1
 10
1115920.5956384
 20
233173.474707215
 30
0.0
 0
VERTEX
 8
TRACTOR
 6
CONTINUOUS
 62
1
 10
1116311.681801
 20
230704.253855727
 30
0.0
 0
VERTEX
 8
TRACTOR
 6
CONTINUOUS
 62
1
 10
1104464.36015556
 20
228827.822447569
 30
0.0
 0
VERTEX
 8
TRACTOR
 6
CONTINUOUS
 62
1
 10
1104073.27399296
 20
231297.043299057
 30
0.0
 0
SEQEND
 0
POLYLINE
 8
TRACTOR
 6
CONTINUOUS
 62
1
 66
1
 10
0.0
 20
0.0
 30
0.0
 70
129
 0
VERTEX
 8
TRACTOR
 6
CONTINUOUS
 62
1
 10
1117646.03615854
 20
231597.524366385
 30
0.0
 0
VERTEX
 8
TRACTOR
 6
CONTINUOUS
 62
1
 10
1117515.19626793
 20
229100.950529499
 30
0.0
 0
VERTEX
 8
TRACTOR
 6
CONTINUOUS
 62
1
 10
1105536.63499855
 20
229728.720324633
 30
0.0
 0
VERTEX
 8
TRACTOR
 6
CONTINUOUS
 62
1
 10
1105667.47488916
 20
232225.294161519
 30
0.0
 0
SEQEND
 0
POLYLINE
 8
TRACTOR
 6
CONTINUOUS
 62
1
 66
1
 10
0.0
 20
0.0
 30
0.0
 70
129
 0
VERTEX
 8
TRACTOR
 6
CONTINUOUS
 62
1
 10
1119006.11316352
 20
229697.273065679
 30
0.0
 0
VERTEX
 8
TRACTOR
 6
CONTINUOUS
 62
1
 10
1118359.06555076
 20
227282.458499956
 30
0.0
 0
VERTEX
 8
TRACTOR
 6
CONTINUOUS
 62
1
 10
1106772.78526442
 20
230386.992945961
 30
0.0
 0
VERTEX
 8
TRACTOR
 6
CONTINUOUS
 62
1
 10
1107419.83287718
 20
232801.807511683
 30
0.0
 0
SEQEND
 0
POLYLINE
 8
TRACTOR
 6
CONTINUOUS
 62
1
 66
1
 10
0.0
 20
0.0
 30
0.0
 70
129
 0
VERTEX
 8
TRACTOR
 6
CONTINUOUS
 62
1
 10
1119941.38476184
 20
227555.770905353
 30
0.0
 0
VERTEX
 8
TRACTOR
 6
CONTINUOUS
 62
1
 10
1118806.4085125
 20
225328.254594882
 30
0.0
 0
VERTEX
 8
TRACTOR
 6
CONTINUOUS
 62
1
 10
1108118.78525486
 20
230773.870639258
 30
0.0
 0
VERTEX
 8
TRACTOR
 6
CONTINUOUS
 62
1
 10
1109253.7615042
 20
233001.386949729
 30
0.0
 0
SEQEND
 0
POLYLINE
 8
TRACTOR
 6
CONTINUOUS
 62
1
 66
1
 10
0.0
 20
0.0
 30
0.0
 70
129
 0
VERTEX
 8
TRACTOR
 6
CONTINUOUS
 62
1
 10
1120410.97509674
 20
225266.611805883
 30
0.0
 0
VERTEX
 8
TRACTOR
 6
CONTINUOUS
 62
1
 10
1118837.67411911
 20
223323.746902241
 30
0.0
 0
VERTEX
 8
TRACTOR
 6
CONTINUOUS
 62
1
 10
1109515.80831144
 20
230872.444992884
 30
0.0
 0
VERTEX
 8
TRACTOR
 6
CONTINUOUS
 62
1
 10
1111089.10928906
 20
232815.309896526
 30
0.0
 0
SEQEND
 0
POLYLINE
 8
TRACTOR
 6
CONTINUOUS
 62
1
 66
1
 10
0.0
 20
0.0
 30
0.0
 70
129
 0
VERTEX
 8
TRACTOR
 6
CONTINUOUS
 62
1
 10
1120462.63087934
 20
222941.635832476
 30
0.0
 0
VERTEX
 8
TRACTOR
 6
CONTINUOUS
 62
1
 10
1118530.96931004
 20
221354.599732791
 30
0.0
 0
VERTEX
 8
TRACTOR
 6
CONTINUOUS
 62
1
 10
1110916.37010375
 20
230622.711942276
 30
0.0
 0
VERTEX
 8
TRACTOR
 6
CONTINUOUS
 62
1
 10
1112848.03167305
 20
232209.74804196
 30
0.0
 0
SEQEND
 0
POLYLINE
 8
TRACTOR
 6
CONTINUOUS
 62
1
 66
1
 10
0.0
 20
0.0
 30
0.0
 70
129
 0
VERTEX
 8
TRACTOR
 6
CONTINUOUS
 62
1
 10
1120424.75554532
 20
220694.819455637
 30
0.0
 0
VERTEX
 8
TRACTOR
 6
CONTINUOUS
 62
1
 10
1118260.03285506
 20
219444.229325235
 30
0.0
 0
VERTEX
 8
TRACTOR
 6
CONTINUOUS
 62
1
 10
1112259.70140939
 20
229830.56879312
 30
0.0
 0
VERTEX
 8
TRACTOR
 6
CONTINUOUS
 62
1
 10
1114424.42409966
 20
231081.158923522
 30
0.0
 0
SEQEND
 0
POLYLINE
 8
TRACTOR
 6
CONTINUOUS
 62
1
 66
1
 10
0.0
 20
0.0
 30
0.0
 70
129
 0
VERTEX
 8
TRACTOR
 6
CONTINUOUS
 62
1
 10
1120370.41229041
 20
218526.413036456
 30
0.0
 0
VERTEX
 8
TRACTOR
 6
CONTINUOUS
 62
1
 10
1118065.1471746
 20
217559.069898886
 30
0.0
 0
VERTEX
 8
TRACTOR
 6
CONTINUOUS
 62
1
 10
1113423.83480054
 20
228619.73192457
 30
0.0
 0
VERTEX
 8
TRACTOR
 6
CONTINUOUS
 62
1
 10
1115729.09991635
 20
229587.07506214
 30
0.0
 0
SEQEND
 0
POLYLINE
 8
TRACTOR
 6
CONTINUOUS
 62
1
 66
1
 10
0.0
 20
0.0
 30
0.0
 70
129
 0
VERTEX
 8
TRACTOR
 6
CONTINUOUS
 62
1
 10
1120319.11640066
 20
216419.446050053
 30
0.0
 0
VERTEX
 8
TRACTOR
 6
CONTINUOUS
 62
1
 10
1117931.65236493
 20
215677.815766076
 30
0.0
 0
VERTEX
 8
TRACTOR
 6
CONTINUOUS
 62
1
 10
1114373.31026241
 20
227132.868209493
 30
0.0
 0
VERTEX
 8
TRACTOR
 6
CONTINUOUS
 62
1
 10
1116760.77429814
 20
227874.49849347
 30
0.0
 0
SEQEND
 0
POLYLINE
 8
TRACTOR
 6
CONTINUOUS
 62
1
 66
1
 10
0.0
 20
0.0
 30
0.0
 70
129
 0
VERTEX
 8
TRACTOR
 6
CONTINUOUS
 62
1
 10
1120279.12084009
 20
214357.654247574
 30
0.0
 0
VERTEX
 8
TRACTOR
 6
CONTINUOUS
 62
1
 10
1117844.31937913
 20
213790.431323387
 30
0.0
 0
VERTEX
 8
TRACTOR
 6
CONTINUOUS
 62
1
 10
1115122.78378888
 20
225472.608733056
 30
0.0
 0
VERTEX
 8
TRACTOR
 6
CONTINUOUS
 62
1
 10
1117557.58524984
 20
226039.831657244
 30
0.0
 0
SEQEND
 0
POLYLINE
 8
TRACTOR
 6
CONTINUOUS
 62
1
 66
1
 10
0.0
 20
0.0
 30
0.0
 70
129
 0
VERTEX
 8
TRACTOR
 6
CONTINUOUS
 62
1
 10
1120252.49946144
 20
212328.166661316
 30
0.0
 0
VERTEX
 8
TRACTOR
 6
CONTINUOUS
 62
1
 10
1117790.59348889
 20
211893.403527746
 30
0.0
 0
VERTEX
 8
TRACTOR
 6
CONTINUOUS
 62
1
 10
1115704.59997402
 20
223705.628384052
 30
0.0
 0
VERTEX
 8
TRACTOR
 6
CONTINUOUS
 62
1
 10
1118166.50594658
 20
224140.391517622
 30
0.0
 0
SEQEND
 0
POLYLINE
 8
TRACTOR
 6
CONTINUOUS
 62
1
 66
1
 10
0.0
 20
0.0
 30
0.0
 70
129
 0
VERTEX
 8
TRACTOR
 6
CONTINUOUS
 62
1
 10
1120238.47206687
 20
210321.57241369
 30
0.0
 0
VERTEX
 8
TRACTOR
 6
CONTINUOUS
 62
1
 10
1117761.03588648
 20
209986.44561368
 30
0.0
 0
VERTEX
 8
TRACTOR
 6
CONTINUOUS
 62
1
 10
1116153.09750003
 20
221873.1844072
 30
0.0
 0
VERTEX
 8
TRACTOR
 6
CONTINUOUS
 62
1
 10
1118630.53368042
 20
222208.31120721
 30
0.0
 0
SEQEND
 0
POLYLINE
 8
TRACTOR
 6
CONTINUOUS
 62
1
 66
1
 10
0.0
 20
0.0
 30
0.0
 70
129
 0
VERTEX
 8
TRACTOR
 6
CONTINUOUS
 62
1
 10
1120235.20442783
 20
208331.211599792
 30
0.0
 0
VERTEX
 8
TRACTOR
 6
CONTINUOUS
 62
1
 10
1117748.82222186
 20
208070.628550018
 30
0.0
 0
VERTEX
 8
TRACTOR
 6
CONTINUOUS
 62
1
 10
1116498.54474904
 20
220000.290374268
 30
0.0
 0
VERTEX
 8
TRACTOR
 6
CONTINUOUS
 62
1
 10
1118984.92695501
 20
220260.873424042
 30
0.0
 0
SEQEND
 0
LINE
 8
TRACTOR
 6
CONTINUOUS
 62
1
 10
1100462.11055697
 20
217142.264560438
 30
0.0
 11
1100462.11055697
 21
1370057.17192282
 31
0.0
 0
LINE
 8
TRACTOR
 6
CONTINUOUS
 62
1
 10
1110416.43902787
 20
217142.264560438
 30
0.0
 11
1110416.43902787
 21
229404.109498413
 31
0.0
 0
LINE
 8
TRACTOR
 6
CONTINUOUS
 62
1
 10
1100462.11055697
 20
1370057.17192282
 30
0.0
 11
1120792.3160543
 21
205340.479035272
 31
0.0
 0
LINE
 8
TRACTOR
 6
CONTINUOUS
 62
1
 10
1110416.43902787
 20
229404.109498413
 30
0.0
 11
1110839.50367584
 21
205166.752048988
 31
0.0
 0
CIRCLE
 8
SENYUU
 6
CONTINUOUS
 62
7
 10
1109222.60471242
 20
232439.878277888
 30
0.0
 40
2915.0912551921
 0
ENDSEC
 0
EOF
