 0
SECTION
 2
HEADER
 9
$ACADVER
 1
AC1009
 9
$EXTMIN
 10
0.0
 20
0.0
 9
$EXTMAX
 10
59400.0
 20
42000.0
 9
$LIMMIN
 10
0.0
 20
0.0
 9
$LIMMAX
 10
59400.0
 20
42000.0
 9
$LTSCALE
 40
0.2
 9
$DIMSCALE
 40
10.0
 0
ENDSEC
 0
SECTION
 2
TABLES
 0
TABLE
 2
LTYPE
 70
9
 0
LTYPE
 2
CONTINUOUS
 70
0
 3
Solid line
 72
65
 73
0
 40
0.0
 0
LTYPE
 2
DASH
 70
0
 3
DASH
 72
65
 73
2
 40
7500.0
 49
6000.0
 49
-1500.0
 0
LTYPE
 2
DASHDOT
 70
0
 3
DASHDOT
 72
65
 73
4
 40
18500.0
 49
12000.0
 49
-1500.0
 49
3500.0
 49
-1500.0
 0
LTYPE
 2
DASHDOTDOT
 70
0
 3
DASHDOTDOT
 72
65
 73
6
 40
23500.0
 49
12000.0
 49
-1500.0
 49
3500.0
 49
-1500.0
 49
3500.0
 49
-1500.0
 0
LTYPE
 2
DOT
 70
0
 3
DOT
 72
65
 73
2
 40
1750.0
 49
250.0
 49
-1500.0
 0
LTYPE
 2
DASHED1
 70
0
 3
DASHED1
 72
65
 73
2
 40
5000.0
 49
2500.0
 49
-2500.0
 0
LTYPE
 2
DASHED2
 70
0
 3
DASHED2
 72
65
 73
2
 40
2500.0
 49
1250.0
 49
-1250.0
 0
LTYPE
 2
CENTER1
 70
0
 3
CENTER1
 72
65
 73
4
 40
10000.0
 49
6250.0
 49
-1250.0
 49
1250.0
 49
-1250.0
 0
LTYPE
 2
CENTER2
 70
0
 3
CENTER2
 72
65
 73
6
 40
9500.0
 49
3250.0
 49
-1250.0
 49
1250.0
 49
-1250.0
 49
1250.0
 49
-1250.0
 0
ENDTAB
 0
TABLE
 2
LAYER
 70
9
 0
LAYER
 2
SYSLAYER
 70
0
 62
7
 6
CONTINUOUS
 0
LAYER
 2
SYSLAYER_RST
 70
0
 62
7
 6
CONTINUOUS
 0
LAYER
 2
FUKUIN
 70
0
 62
7
 6
CONTINUOUS
 0
LAYER
 2
TRACTOR
 70
0
 62
1
 6
CONTINUOUS
 0
LAYER
 2
CAR_HATA
 70
0
 62
7
 6
CONTINUOUS
 0
LAYER
 2
SENYUU
 70
0
 62
7
 6
CONTINUOUS
 0
LAYER
 2
HYOU
 70
0
 62
7
 6
CONTINUOUS
 0
LAYER
 2
TRAILER2
 70
0
 62
1
 6
CONTINUOUS
 0
LAYER
 2
TRAILER3
 70
0
 62
1
 6
CONTINUOUS
 0
ENDTAB
 0
TABLE
 2
STYLE
 70
4
 0
STYLE
 2
MTC_FONT0
 70
0
 40
0.0
 41
1.0
 50
0.0
 71
0
 42
602.0
 3
MONOTXT
 4
EXTFONT
 0
STYLE
 2
MTC_FONT1
 70
0
 40
0.0
 41
1.0
 50
0.0
 71
0
 42
602.0
 3
MONOTXT
 4
EXTFONT
 0
STYLE
 2
MTC_FONT2
 70
0
 40
0.0
 41
0.5
 50
0.0
 71
0
 42
1.719999961555
 3
MONOTXT
 4
EXTFONT
 0
STYLE
 2
MTC_FONT3
 70
0
 40
0.0
 41
1.0
 50
0.0
 71
0
 42
0.0
 3
MONOTXT
 4
EXTFONT
 0
ENDTAB
 0
TABLE
 2
DIMSTYLE
 70
0
 0
ENDTAB
 0
ENDSEC
 0
SECTION
 2
BLOCKS
 0
BLOCK
 8
0
 2
MTC_ARROW_NONE
 70
0
 10
0.0
 20
0.0
 30
0.0
 3
MTC_ARROW_NONE
 0
ENDBLK
 8
0
 0
ENDSEC
 0
SECTION
 2
ENTITIES
 0
TEXT
 8
HYOU
 62
7
 10
38000.0
 20
19312.0
 30
0
 11
38000.0
 21
20000.0
 31
0
 40
688.0
 1
タイトル     軌跡図
 41
0.5
 50
0.0
 51
0.0
 7
MTC_FONT2
 72
0
 73
3
 0
TEXT
 8
HYOU
 62
7
 10
38000.0
 20
18312.0
 30
0
 11
38000.0
 21
19000.0
 31
0
 40
688.0
 1
車両名       ウィング15ｔ
 41
0.5
 50
0.0
 51
0.0
 7
MTC_FONT2
 72
0
 73
3
 0
TEXT
 8
HYOU
 62
7
 10
38000.0
 20
17312.0
 30
0
 11
38000.0
 21
18000.0
 31
0
 40
688.0
 1
車種         トラック
 41
0.5
 50
0.0
 51
0.0
 7
MTC_FONT2
 72
0
 73
3
 0
TEXT
 8
HYOU
 62
7
 10
38000.0
 20
16312.0
 30
0
 11
38000.0
 21
17000.0
 31
0
 40
688.0
 1
全長         11995mm
 41
0.5
 50
0.0
 51
0.0
 7
MTC_FONT2
 72
0
 73
3
 0
TEXT
 8
HYOU
 62
7
 10
38000.0
 20
15312.0
 30
0
 11
38000.0
 21
16000.0
 31
0
 40
688.0
 1
車幅         2500mm
 41
0.5
 50
0.0
 51
0.0
 7
MTC_FONT2
 72
0
 73
3
 0
TEXT
 8
HYOU
 62
7
 10
38000.0
 20
14312.0
 30
0
 11
38000.0
 21
15000.0
 31
0
 40
688.0
 1
最小回転半径 10000mm
 41
0.5
 50
0.0
 51
0.0
 7
MTC_FONT2
 72
0
 73
3
 0
TEXT
 8
HYOU
 62
7
 10
38000.0
 20
13312.0
 30
0
 11
38000.0
 21
14000.0
 31
0
 40
688.0
 1
所要道路幅   7500 (7415)mm
 41
0.5
 50
0.0
 51
0.0
 7
MTC_FONT2
 72
0
 73
3
 0
TEXT
 8
HYOU
 62
7
 10
38000.0
 20
12312.0
 30
0
 11
38000.0
 21
13000.0
 31
0
 40
688.0
 1
所要占有幅   5900 (5831)mm
 41
0.5
 50
0.0
 51
0.0
 7
MTC_FONT2
 72
0
 73
3
 0
TEXT
 8
HYOU
 62
7
 10
38000.0
 20
11312.0
 30
0
 11
38000.0
 21
12000.0
 31
0
 40
688.0
 1
旋回方向     右旋回
 41
0.5
 50
0.0
 51
0.0
 7
MTC_FONT2
 72
0
 73
3
 0
TEXT
 8
HYOU
 62
7
 10
38000.0
 20
10312.0
 30
0
 11
38000.0
 21
11000.0
 31
0
 40
688.0
 1
旋回角度     120.000度
 41
0.5
 50
0.0
 51
0.0
 7
MTC_FONT2
 72
0
 73
3
 0
TEXT
 8
HYOU
 62
7
 10
38000.0
 20
9312.0
 30
0
 11
38000.0
 21
10000.0
 31
0
 40
688.0
 1
スケール     1/200
 41
0.5
 50
0.0
 51
0.0
 7
MTC_FONT2
 72
0
 73
3
 0
TEXT
 8
HYOU
 62
7
 10
38000.0
 20
8312.0
 30
0
 11
38000.0
 21
9000.0
 31
0
 40
688.0
 1
作図方法
 41
0.5
 50
0.0
 51
0.0
 7
MTC_FONT2
 72
0
 73
3
 0
TEXT
 8
HYOU
 62
7
 10
38000.0
 20
7312.0
 30
0
 11
38000.0
 21
8000.0
 31
0
 40
688.0
 1
  刻み角     3度
 41
0.5
 50
0.0
 51
0.0
 7
MTC_FONT2
 72
0
 73
3
 0
TEXT
 8
HYOU
 62
7
 10
38000.0
 20
6312.0
 30
0
 11
38000.0
 21
7000.0
 31
0
 40
688.0
 1
  表示間隔   4
 41
0.5
 50
0.0
 51
0.0
 7
MTC_FONT2
 72
0
 73
3
 0
LINE
 8
CAR_HATA
 6
CONTINUOUS
 62
7
 10
17076.5672794864
 20
23592.2360285855
 30
0.0
 11
13826.5672794864
 21
23592.2360285855
 31
0.0
 0
LINE
 8
CAR_HATA
 6
CONTINUOUS
 62
7
 10
17076.5672794864
 20
11597.2360285855
 30
0.0
 11
13826.5672794864
 21
11597.2360285855
 31
0.0
 0
LINE
 8
CAR_HATA
 6
CONTINUOUS
 62
7
 10
13826.5672794864
 20
11597.2360285855
 30
0.0
 11
13826.5672794864
 21
23592.2360285855
 31
0.0
 0
LINE
 8
CAR_HATA
 6
CONTINUOUS
 62
7
 10
13826.5672794864
 20
11597.2360285855
 30
0.0
 11
13595.6271718105
 21
11997.2360285855
 31
0.0
 0
LINE
 8
CAR_HATA
 6
CONTINUOUS
 62
7
 10
13826.5672794864
 20
11597.2360285855
 30
0.0
 11
14057.5073871622
 21
11997.2360285855
 31
0.0
 0
LINE
 8
CAR_HATA
 6
CONTINUOUS
 62
7
 10
13826.5672794864
 20
23592.2360285855
 30
0.0
 11
13595.6271718105
 21
23192.2360285855
 31
0.0
 0
LINE
 8
CAR_HATA
 6
CONTINUOUS
 62
7
 10
13826.5672794864
 20
23592.2360285855
 30
0.0
 11
14057.5073871622
 21
23192.2360285855
 31
0.0
 0
TEXT
 8
CAR_HATA
 62
7
 10
13770.5672794864
 20
17164.7360285855
 30
0
 11
13826.5672794864
 21
17594.7360285855
 31
0
 40
344.0
 1
11995
 41
0.5
 50
90.0
 51
0.0
 7
MTC_FONT2
 72
1
 73
1
 0
LINE
 8
CAR_HATA
 6
CONTINUOUS
 62
7
 10
17076.5672794864
 20
23592.2360285855
 30
0.0
 11
14826.5672794864
 21
23592.2360285855
 31
0.0
 0
LINE
 8
CAR_HATA
 6
CONTINUOUS
 62
7
 10
17076.5672794864
 20
22192.2360285855
 30
0.0
 11
14826.5672794864
 21
22192.2360285855
 31
0.0
 0
LINE
 8
CAR_HATA
 6
CONTINUOUS
 62
7
 10
14826.5672794864
 20
22192.2360285855
 30
0.0
 11
14826.5672794864
 21
23592.2360285855
 31
0.0
 0
LINE
 8
CAR_HATA
 6
CONTINUOUS
 62
7
 10
14826.5672794864
 20
22192.2360285855
 30
0.0
 11
14595.6271718105
 21
22592.2360285855
 31
0.0
 0
LINE
 8
CAR_HATA
 6
CONTINUOUS
 62
7
 10
14826.5672794864
 20
22192.2360285855
 30
0.0
 11
15057.5073871622
 21
22592.2360285855
 31
0.0
 0
LINE
 8
CAR_HATA
 6
CONTINUOUS
 62
7
 10
14826.5672794864
 20
23592.2360285855
 30
0.0
 11
14595.6271718105
 21
23192.2360285855
 31
0.0
 0
LINE
 8
CAR_HATA
 6
CONTINUOUS
 62
7
 10
14826.5672794864
 20
23592.2360285855
 30
0.0
 11
15057.5073871622
 21
23192.2360285855
 31
0.0
 0
TEXT
 8
CAR_HATA
 62
7
 10
14770.5672794864
 20
22548.2360285855
 30
0
 11
14826.5672794864
 21
22892.2360285855
 31
0
 40
344.0
 1
1400
 41
0.5
 50
90.0
 51
0.0
 7
MTC_FONT2
 72
1
 73
1
 0
LINE
 8
CAR_HATA
 6
CONTINUOUS
 62
7
 10
17076.5672794864
 20
22192.2360285855
 30
0.0
 11
14826.5672794864
 21
22192.2360285855
 31
0.0
 0
LINE
 8
CAR_HATA
 6
CONTINUOUS
 62
7
 10
17076.5672794864
 20
15632.2360285855
 30
0.0
 11
14826.5672794864
 21
15632.2360285855
 31
0.0
 0
LINE
 8
CAR_HATA
 6
CONTINUOUS
 62
7
 10
14826.5672794864
 20
15632.2360285855
 30
0.0
 11
14826.5672794864
 21
22192.2360285855
 31
0.0
 0
LINE
 8
CAR_HATA
 6
CONTINUOUS
 62
7
 10
14826.5672794864
 20
15632.2360285855
 30
0.0
 11
14595.6271718105
 21
16032.2360285855
 31
0.0
 0
LINE
 8
CAR_HATA
 6
CONTINUOUS
 62
7
 10
14826.5672794864
 20
15632.2360285855
 30
0.0
 11
15057.5073871622
 21
16032.2360285855
 31
0.0
 0
LINE
 8
CAR_HATA
 6
CONTINUOUS
 62
7
 10
14826.5672794864
 20
22192.2360285855
 30
0.0
 11
14595.6271718105
 21
21792.2360285855
 31
0.0
 0
LINE
 8
CAR_HATA
 6
CONTINUOUS
 62
7
 10
14826.5672794864
 20
22192.2360285855
 30
0.0
 11
15057.5073871622
 21
21792.2360285855
 31
0.0
 0
TEXT
 8
CAR_HATA
 62
7
 10
14770.5672794864
 20
18568.2360285855
 30
0
 11
14826.5672794864
 21
18912.2360285855
 31
0
 40
344.0
 1
6560
 41
0.5
 50
90.0
 51
0.0
 7
MTC_FONT2
 72
1
 73
1
 0
LINE
 8
CAR_HATA
 6
CONTINUOUS
 62
7
 10
17076.5672794864
 20
15632.2360285855
 30
0.0
 11
14826.5672794864
 21
15632.2360285855
 31
0.0
 0
LINE
 8
CAR_HATA
 6
CONTINUOUS
 62
7
 10
17076.5672794864
 20
11597.2360285855
 30
0.0
 11
14826.5672794864
 21
11597.2360285855
 31
0.0
 0
LINE
 8
CAR_HATA
 6
CONTINUOUS
 62
7
 10
14826.5672794864
 20
11597.2360285855
 30
0.0
 11
14826.5672794864
 21
15632.2360285855
 31
0.0
 0
LINE
 8
CAR_HATA
 6
CONTINUOUS
 62
7
 10
14826.5672794864
 20
11597.2360285855
 30
0.0
 11
14595.6271718105
 21
11997.2360285855
 31
0.0
 0
LINE
 8
CAR_HATA
 6
CONTINUOUS
 62
7
 10
14826.5672794864
 20
11597.2360285855
 30
0.0
 11
15057.5073871622
 21
11997.2360285855
 31
0.0
 0
LINE
 8
CAR_HATA
 6
CONTINUOUS
 62
7
 10
14826.5672794864
 20
15632.2360285855
 30
0.0
 11
14595.6271718105
 21
15232.2360285855
 31
0.0
 0
LINE
 8
CAR_HATA
 6
CONTINUOUS
 62
7
 10
14826.5672794864
 20
15632.2360285855
 30
0.0
 11
15057.5073871622
 21
15232.2360285855
 31
0.0
 0
TEXT
 8
CAR_HATA
 62
7
 10
14770.5672794864
 20
13270.7360285855
 30
0
 11
14826.5672794864
 21
13614.7360285855
 31
0
 40
344.0
 1
4035
 41
0.5
 50
90.0
 51
0.0
 7
MTC_FONT2
 72
1
 73
1
 0
LINE
 8
CAR_HATA
 6
CONTINUOUS
 62
7
 10
15826.5672794864
 20
11597.2360285855
 30
0.0
 11
15826.5672794864
 21
10597.2360285855
 31
0.0
 0
LINE
 8
CAR_HATA
 6
CONTINUOUS
 62
7
 10
18326.5672794864
 20
11597.2360285855
 30
0.0
 11
18326.5672794864
 21
10597.2360285855
 31
0.0
 0
LINE
 8
CAR_HATA
 6
CONTINUOUS
 62
7
 10
15826.5672794864
 20
10597.2360285855
 30
0.0
 11
18326.5672794864
 21
10597.2360285855
 31
0.0
 0
LINE
 8
CAR_HATA
 6
CONTINUOUS
 62
7
 10
15826.5672794864
 20
10597.2360285855
 30
0.0
 11
16226.5672794864
 21
10828.1761362613
 31
0.0
 0
LINE
 8
CAR_HATA
 6
CONTINUOUS
 62
7
 10
15826.5672794864
 20
10597.2360285855
 30
0.0
 11
16226.5672794864
 21
10366.2959209096
 31
0.0
 0
LINE
 8
CAR_HATA
 6
CONTINUOUS
 62
7
 10
18326.5672794864
 20
10597.2360285855
 30
0.0
 11
17926.5672794864
 21
10828.1761362613
 31
0.0
 0
LINE
 8
CAR_HATA
 6
CONTINUOUS
 62
7
 10
18326.5672794864
 20
10597.2360285855
 30
0.0
 11
17926.5672794864
 21
10366.2959209096
 31
0.0
 0
TEXT
 8
CAR_HATA
 62
7
 10
16732.5672794864
 20
10653.2360285855
 30
0
 11
17076.5672794864
 21
10597.2360285855
 31
0
 40
344.0
 1
2500
 41
0.5
 50
0.0
 51
0.0
 7
MTC_FONT2
 72
1
 73
1
 0
LINE
 8
CAR_HATA
 6
CONTINUOUS
 62
7
 10
16126.5672794864
 20
22192.2360285855
 30
0.0
 11
23674.1761723743
 21
15632.2360285855
 31
0.0
 0
LINE
 8
CAR_HATA
 6
CONTINUOUS
 62
7
 10
16126.5672794864
 20
22192.2360285855
 30
0.0
 11
16579.9683458373
 21
22104.1405896273
 31
0.0
 0
LINE
 8
CAR_HATA
 6
CONTINUOUS
 62
7
 10
16126.5672794864
 20
22192.2360285855
 30
0.0
 11
16276.9749245666
 21
21755.5314675436
 31
0.0
 0
TEXT
 8
CAR_HATA
 62
7
 10
22802.1800616706
 20
16464.3266383856
 30
0
 11
23674.1761723743
 21
15632.2360285855
 31
0
 40
344.0
 1
R=10000
 41
0.5
 50
319.004481190049
 51
0.0
 7
MTC_FONT2
 72
2
 73
1
 0
ARC
 8
CAR_HATA
 6
CONTINUOUS
 62
7
 10
23674.1761723743
 20
15632.2360285855
 30
0.0
 40
10000.0
 50
129.004481190049
 51
144.004481190049
 0
LINE
 8
CAR_HATA
 6
CONTINUOUS
 62
7
 10
20728.3799826911
 20
26415.0394740991
 30
0.0
 11
22264.8699879199
 21
20790.8656835287
 31
0.0
 0
LINE
 8
CAR_HATA
 6
CONTINUOUS
 62
7
 10
20728.3799826911
 20
26415.0394740991
 30
0.0
 11
21056.570775936
 21
26090.040802467
 31
0.0
 0
LINE
 8
CAR_HATA
 6
CONTINUOUS
 62
7
 10
20728.3799826911
 20
26415.0394740991
 30
0.0
 11
20611.018273484
 21
25968.3185740448
 31
0.0
 0
LINE
 8
CAR_HATA
 6
CONTINUOUS
 62
7
 10
22264.8699879199
 20
20790.8656835287
 30
0.0
 11
22382.231697127
 21
21237.586583583
 31
0.0
 0
LINE
 8
CAR_HATA
 6
CONTINUOUS
 62
7
 10
22264.8699879199
 20
20790.8656835287
 30
0.0
 11
21936.6791946749
 21
21115.8643551607
 31
0.0
 0
LINE
 8
CAR_HATA
 6
CONTINUOUS
 62
7
 10
20201.3072725965
 20
28344.338403315
 30
0.0
 11
20728.3799826911
 21
26415.0394740991
 31
0.0
 0
TEXT
 8
CAR_HATA
 62
7
 10
20255.3276426145
 20
28359.0964391976
 30
0
 11
20201.3072725965
 21
28344.338403315
 31
0
 40
344.0
 1
5900
 41
0.5
 50
285.280000903207
 51
0.0
 7
MTC_FONT2
 72
0
 73
1
 0
LINE
 8
CAR_HATA
 6
CONTINUOUS
 62
7
 10
14850.0537830835
 20
8597.23602858547
 30
0.0
 11
22264.8699879199
 21
8597.23602858547
 31
0.0
 0
LINE
 8
CAR_HATA
 6
CONTINUOUS
 62
7
 10
14850.0537830835
 20
8597.23602858547
 30
0.0
 11
15250.0537830835
 21
8828.17613626132
 31
0.0
 0
LINE
 8
CAR_HATA
 6
CONTINUOUS
 62
7
 10
14850.0537830835
 20
8597.23602858547
 30
0.0
 11
15250.0537830835
 21
8366.29592090962
 31
0.0
 0
LINE
 8
CAR_HATA
 6
CONTINUOUS
 62
7
 10
22264.8699879199
 20
8597.23602858547
 30
0.0
 11
21864.8699879199
 21
8828.17613626132
 31
0.0
 0
LINE
 8
CAR_HATA
 6
CONTINUOUS
 62
7
 10
22264.8699879199
 20
8597.23602858547
 30
0.0
 11
21864.8699879199
 21
8366.29592090962
 31
0.0
 0
TEXT
 8
CAR_HATA
 62
7
 10
18213.4618855017
 20
8653.23602858547
 30
0
 11
18557.4618855017
 21
8597.23602858547
 31
0
 40
344.0
 1
7500
 41
0.5
 50
0.0
 51
0.0
 7
MTC_FONT2
 72
1
 73
1
 0
LINE
 8
CAR_HATA
 6
CONTINUOUS
 62
7
 10
41896.9647257712
 20
9456.27050187393
 30
0.0
 11
45604.3728281895
 21
15877.6896996548
 31
0.0
 0
LINE
 8
CAR_HATA
 6
CONTINUOUS
 62
7
 10
41896.9647257712
 20
9456.27050187393
 30
0.0
 11
41896.9647257712
 21
9918.15071722563
 31
0.0
 0
LINE
 8
CAR_HATA
 6
CONTINUOUS
 62
7
 10
41896.9647257712
 20
9456.27050187393
 30
0.0
 11
42296.9647257712
 21
9687.21060954978
 31
0.0
 0
LINE
 8
CAR_HATA
 6
CONTINUOUS
 62
7
 10
45604.3728281895
 20
15877.6896996548
 30
0.0
 11
45204.3728281895
 21
15646.7495919789
 31
0.0
 0
LINE
 8
CAR_HATA
 6
CONTINUOUS
 62
7
 10
45604.3728281895
 20
15877.6896996548
 30
0.0
 11
45604.3728281895
 21
15415.8094843031
 31
0.0
 0
TEXT
 8
CAR_HATA
 62
7
 10
43530.1713543684
 20
12397.0673618625
 30
0
 11
43750.6687769803
 21
12666.9801007644
 31
0
 40
344.0
 1
7500
 41
0.5
 50
60.0
 51
0.0
 7
MTC_FONT2
 72
1
 73
1
 0
POLYLINE
 8
TRACTOR
 6
CONTINUOUS
 62
1
 66
1
 10
0.0
 20
0.0
 30
0.0
 70
129
 0
VERTEX
 8
TRACTOR
 6
CONTINUOUS
 62
1
 10
15826.5672794864
 20
23592.2360285855
 30
0.0
 0
VERTEX
 8
TRACTOR
 6
CONTINUOUS
 62
1
 10
18326.5672794864
 20
23592.2360285855
 30
0.0
 0
VERTEX
 8
TRACTOR
 6
CONTINUOUS
 62
1
 10
18326.5672794864
 20
11597.2360285855
 30
0.0
 0
VERTEX
 8
TRACTOR
 6
CONTINUOUS
 62
1
 10
15826.5672794864
 20
11597.2360285855
 30
0.0
 0
SEQEND
 0
POLYLINE
 8
TRACTOR
 6
CONTINUOUS
 62
1
 66
1
 10
0.0
 20
0.0
 30
0.0
 70
129
 0
VERTEX
 8
TRACTOR
 6
CONTINUOUS
 62
1
 10
17168.4027090384
 20
24721.8717187266
 30
0.0
 0
VERTEX
 8
TRACTOR
 6
CONTINUOUS
 62
1
 10
19637.6235605263
 20
24330.7855561261
 30
0.0
 0
VERTEX
 8
TRACTOR
 6
CONTINUOUS
 62
1
 10
17761.1921523687
 20
12483.4639106874
 30
0.0
 0
VERTEX
 8
TRACTOR
 6
CONTINUOUS
 62
1
 10
15291.9713008809
 20
12874.550073288
 30
0.0
 0
SEQEND
 0
POLYLINE
 8
TRACTOR
 6
CONTINUOUS
 62
1
 66
1
 10
0.0
 20
0.0
 30
0.0
 70
129
 0
VERTEX
 8
TRACTOR
 6
CONTINUOUS
 62
1
 10
19200.4109935494
 20
25875.8677312809
 30
0.0
 0
VERTEX
 8
TRACTOR
 6
CONTINUOUS
 62
1
 10
21534.3620597924
 20
24979.9478574176
 30
0.0
 0
VERTEX
 8
TRACTOR
 6
CONTINUOUS
 62
1
 10
17235.7385049965
 20
13781.6506415837
 30
0.0
 0
VERTEX
 8
TRACTOR
 6
CONTINUOUS
 62
1
 10
14901.7874387535
 20
14677.5705154469
 30
0.0
 0
SEQEND
 0
POLYLINE
 8
TRACTOR
 6
CONTINUOUS
 62
1
 66
1
 10
0.0
 20
0.0
 30
0.0
 70
129
 0
VERTEX
 8
TRACTOR
 6
CONTINUOUS
 62
1
 10
21427.9442838821
 20
26582.1678840288
 30
0.0
 0
VERTEX
 8
TRACTOR
 6
CONTINUOUS
 62
1
 10
23524.6207037456
 20
25220.5702964913
 30
0.0
 0
VERTEX
 8
TRACTOR
 6
CONTINUOUS
 62
1
 10
16991.6754787404
 20
15160.7168339859
 30
0.0
 0
VERTEX
 8
TRACTOR
 6
CONTINUOUS
 62
1
 10
14894.9990588768
 20
16522.3144215235
 30
0.0
 0
SEQEND
 0
POLYLINE
 8
TRACTOR
 6
CONTINUOUS
 62
1
 66
1
 10
0.0
 20
0.0
 30
0.0
 70
129
 0
VERTEX
 8
TRACTOR
 6
CONTINUOUS
 62
1
 10
23753.6486863583
 20
26809.9034710912
 30
0.0
 0
VERTEX
 8
TRACTOR
 6
CONTINUOUS
 62
1
 10
25521.4156393247
 20
25042.1365181249
 30
0.0
 0
VERTEX
 8
TRACTOR
 6
CONTINUOUS
 62
1
 10
17039.6697989921
 20
16560.3906777922
 30
0.0
 0
VERTEX
 8
TRACTOR
 6
CONTINUOUS
 62
1
 10
15271.9028460257
 20
18328.1576307586
 30
0.0
 0
SEQEND
 0
POLYLINE
 8
TRACTOR
 6
CONTINUOUS
 62
1
 66
1
 10
0.0
 20
0.0
 30
0.0
 70
129
 0
VERTEX
 8
TRACTOR
 6
CONTINUOUS
 62
1
 10
26075.879758622
 20
26549.1213545169
 30
0.0
 0
VERTEX
 8
TRACTOR
 6
CONTINUOUS
 62
1
 10
27437.4773461596
 20
24452.4449346534
 30
0.0
 0
VERTEX
 8
TRACTOR
 6
CONTINUOUS
 62
1
 10
17377.6238836543
 20
17919.4997096481
 30
0.0
 0
VERTEX
 8
TRACTOR
 6
CONTINUOUS
 62
1
 10
16016.0262961167
 20
20016.1761295116
 30
0.0
 0
SEQEND
 0
POLYLINE
 8
TRACTOR
 6
CONTINUOUS
 62
1
 66
1
 10
0.0
 20
0.0
 30
0.0
 70
129
 0
VERTEX
 8
TRACTOR
 6
CONTINUOUS
 62
1
 10
28293.1448595143
 20
25811.2189641715
 30
0.0
 0
VERTEX
 8
TRACTOR
 6
CONTINUOUS
 62
1
 10
29189.0647333775
 20
23477.2678979285
 30
0.0
 0
VERTEX
 8
TRACTOR
 6
CONTINUOUS
 62
1
 10
17990.7675175436
 20
19178.6443431327
 30
0.0
 0
VERTEX
 8
TRACTOR
 6
CONTINUOUS
 62
1
 10
17094.8476436804
 20
21512.5954093757
 30
0.0
 0
SEQEND
 0
POLYLINE
 8
TRACTOR
 6
CONTINUOUS
 62
1
 66
1
 10
0.0
 20
0.0
 30
0.0
 70
129
 0
VERTEX
 8
TRACTOR
 6
CONTINUOUS
 62
1
 10
30326.4480944965
 20
24675.5616243039
 30
0.0
 0
VERTEX
 8
TRACTOR
 6
CONTINUOUS
 62
1
 10
30730.2859525063
 20
22208.394223328
 30
0.0
 0
VERTEX
 8
TRACTOR
 6
CONTINUOUS
 62
1
 10
18892.816762624
 20
20270.780180597
 30
0.0
 0
VERTEX
 8
TRACTOR
 6
CONTINUOUS
 62
1
 10
18488.9789046142
 20
22737.9475815729
 30
0.0
 0
SEQEND
 0
POLYLINE
 8
TRACTOR
 6
CONTINUOUS
 62
1
 66
1
 10
0.0
 20
0.0
 30
0.0
 70
129
 0
VERTEX
 8
TRACTOR
 6
CONTINUOUS
 62
1
 10
32240.3803117048
 20
23484.5668792529
 30
0.0
 0
VERTEX
 8
TRACTOR
 6
CONTINUOUS
 62
1
 10
32227.7767345819
 20
20984.598649486
 30
0.0
 0
VERTEX
 8
TRACTOR
 6
CONTINUOUS
 62
1
 10
20232.9291681605
 20
21045.0706125217
 30
0.0
 0
VERTEX
 8
TRACTOR
 6
CONTINUOUS
 62
1
 10
20245.5327452834
 20
23545.0388422885
 30
0.0
 0
SEQEND
 0
POLYLINE
 8
TRACTOR
 6
CONTINUOUS
 62
1
 66
1
 10
0.0
 20
0.0
 30
0.0
 70
129
 0
VERTEX
 8
TRACTOR
 6
CONTINUOUS
 62
1
 10
34076.3699900843
 20
22318.4954867072
 30
0.0
 0
VERTEX
 8
TRACTOR
 6
CONTINUOUS
 62
1
 10
33741.2361680654
 20
19841.0602562039
 30
0.0
 0
VERTEX
 8
TRACTOR
 6
CONTINUOUS
 62
1
 10
21854.5019321105
 20
21449.0323342504
 30
0.0
 0
VERTEX
 8
TRACTOR
 6
CONTINUOUS
 62
1
 10
22189.6357541293
 20
23926.4675647537
 30
0.0
 0
SEQEND
 0
POLYLINE
 8
TRACTOR
 6
CONTINUOUS
 62
1
 66
1
 10
0.0
 20
0.0
 30
0.0
 70
129
 0
VERTEX
 8
TRACTOR
 6
CONTINUOUS
 62
1
 10
35859.4426633148
 20
21186.4729209598
 30
0.0
 0
VERTEX
 8
TRACTOR
 6
CONTINUOUS
 62
1
 10
35282.5554693266
 20
18753.9431338015
 30
0.0
 0
VERTEX
 8
TRACTOR
 6
CONTINUOUS
 62
1
 10
23611.277550541
 20
21521.8478905565
 30
0.0
 0
VERTEX
 8
TRACTOR
 6
CONTINUOUS
 62
1
 10
24188.1647445291
 20
23954.3776777149
 30
0.0
 0
SEQEND
 0
POLYLINE
 8
TRACTOR
 6
CONTINUOUS
 62
1
 66
1
 10
0.0
 20
0.0
 30
0.0
 70
129
 0
VERTEX
 8
TRACTOR
 6
CONTINUOUS
 62
1
 10
37608.3494313754
 20
20087.7048586198
 30
0.0
 0
VERTEX
 8
TRACTOR
 6
CONTINUOUS
 62
1
 10
36853.0613751645
 20
17704.5263189076
 30
0.0
 0
VERTEX
 8
TRACTOR
 6
CONTINUOUS
 62
1
 10
25418.570741625
 20
21328.3984126076
 30
0.0
 0
VERTEX
 8
TRACTOR
 6
CONTINUOUS
 62
1
 10
26173.8587978359
 20
23711.5769523198
 30
0.0
 0
SEQEND
 0
POLYLINE
 8
TRACTOR
 6
CONTINUOUS
 62
1
 66
1
 10
0.0
 20
0.0
 30
0.0
 70
129
 0
VERTEX
 8
TRACTOR
 6
CONTINUOUS
 62
1
 10
39335.6393803513
 20
19017.4936231522
 30
0.0
 0
VERTEX
 8
TRACTOR
 6
CONTINUOUS
 62
1
 10
38449.5023295381
 20
16679.8107688762
 30
0.0
 0
VERTEX
 8
TRACTOR
 6
CONTINUOUS
 62
1
 10
27233.2999947218
 20
20931.4963386783
 30
0.0
 0
VERTEX
 8
TRACTOR
 6
CONTINUOUS
 62
1
 10
28119.4370455351
 20
23269.1791929543
 30
0.0
 0
SEQEND
 0
POLYLINE
 8
TRACTOR
 6
CONTINUOUS
 62
1
 66
1
 10
0.0
 20
0.0
 30
0.0
 70
129
 0
VERTEX
 8
TRACTOR
 6
CONTINUOUS
 62
1
 10
41049.2827934067
 20
17970.3173913406
 30
0.0
 0
VERTEX
 8
TRACTOR
 6
CONTINUOUS
 62
1
 10
40067.2911944205
 20
15671.2539951898
 30
0.0
 0
VERTEX
 8
TRACTOR
 6
CONTINUOUS
 62
1
 10
29036.3850196889
 20
20382.8496871255
 30
0.0
 0
VERTEX
 8
TRACTOR
 6
CONTINUOUS
 62
1
 10
30018.3766186751
 20
22681.9130832763
 30
0.0
 0
SEQEND
 0
POLYLINE
 8
TRACTOR
 6
CONTINUOUS
 62
1
 66
1
 10
0.0
 20
0.0
 30
0.0
 70
129
 0
VERTEX
 8
TRACTOR
 6
CONTINUOUS
 62
1
 10
42754.2374182355
 20
16941.1103611634
 30
0.0
 0
VERTEX
 8
TRACTOR
 6
CONTINUOUS
 62
1
 10
41701.9539875926
 20
14673.3582623672
 30
0.0
 0
VERTEX
 8
TRACTOR
 6
CONTINUOUS
 62
1
 10
30821.2794175686
 20
19722.2141625917
 30
0.0
 0
VERTEX
 8
TRACTOR
 6
CONTINUOUS
 62
1
 10
31873.5628482114
 20
21989.9662613879
 30
0.0
 0
SEQEND
 0
LINE
 8
FUKUIN
 6
CONTINUOUS
 62
7
 10
14850.0537830835
 20
8597.23602858547
 30
0.0
 11
14850.0537830835
 21
33633.7040790904
 31
0.0
 0
LINE
 8
FUKUIN
 6
CONTINUOUS
 62
7
 10
22264.8699879199
 20
8597.23602858547
 30
0.0
 11
22264.8699879199
 21
20790.8656835287
 31
0.0
 0
LINE
 8
FUKUIN
 6
CONTINUOUS
 62
7
 10
14850.0537830835
 20
33633.7040790904
 30
0.0
 11
45604.3728281895
 21
15877.6896996548
 31
0.0
 0
LINE
 8
FUKUIN
 6
CONTINUOUS
 62
7
 10
22264.8699879199
 20
20790.8656835287
 30
0.0
 11
41896.9647257712
 21
9456.27050187393
 31
0.0
 0
CIRCLE
 8
SENYUU
 6
CONTINUOUS
 62
7
 10
21496.6249853055
 20
23602.9525788139
 30
0.0
 40
2915.13860574019
 0
ENDSEC
 0
EOF
