 0
SECTION
 2
HEADER
 9
$ACADVER
 1
AC1009
 9
$EXTMIN
 10
0.0
 20
0.0
 9
$EXTMAX
 10
59400.0
 20
42000.0
 9
$LIMMIN
 10
0.0
 20
0.0
 9
$LIMMAX
 10
59400.0
 20
42000.0
 9
$LTSCALE
 40
0.2
 9
$DIMSCALE
 40
10.0
 0
ENDSEC
 0
SECTION
 2
TABLES
 0
TABLE
 2
LTYPE
 70
9
 0
LTYPE
 2
CONTINUOUS
 70
0
 3
Solid line
 72
65
 73
0
 40
0.0
 0
LTYPE
 2
DASH
 70
0
 3
DASH
 72
65
 73
2
 40
7500.0
 49
6000.0
 49
-1500.0
 0
LTYPE
 2
DASHDOT
 70
0
 3
DASHDOT
 72
65
 73
4
 40
18500.0
 49
12000.0
 49
-1500.0
 49
3500.0
 49
-1500.0
 0
LTYPE
 2
DASHDOTDOT
 70
0
 3
DASHDOTDOT
 72
65
 73
6
 40
23500.0
 49
12000.0
 49
-1500.0
 49
3500.0
 49
-1500.0
 49
3500.0
 49
-1500.0
 0
LTYPE
 2
DOT
 70
0
 3
DOT
 72
65
 73
2
 40
1750.0
 49
250.0
 49
-1500.0
 0
LTYPE
 2
DASHED1
 70
0
 3
DASHED1
 72
65
 73
2
 40
5000.0
 49
2500.0
 49
-2500.0
 0
LTYPE
 2
DASHED2
 70
0
 3
DASHED2
 72
65
 73
2
 40
2500.0
 49
1250.0
 49
-1250.0
 0
LTYPE
 2
CENTER1
 70
0
 3
CENTER1
 72
65
 73
4
 40
10000.0
 49
6250.0
 49
-1250.0
 49
1250.0
 49
-1250.0
 0
LTYPE
 2
CENTER2
 70
0
 3
CENTER2
 72
65
 73
6
 40
9500.0
 49
3250.0
 49
-1250.0
 49
1250.0
 49
-1250.0
 49
1250.0
 49
-1250.0
 0
ENDTAB
 0
TABLE
 2
LAYER
 70
11
 0
LAYER
 2
SYSLAYER
 70
0
 62
7
 6
CONTINUOUS
 0
LAYER
 2
SYSLAYER_RST
 70
0
 62
7
 6
CONTINUOUS
 0
LAYER
 2
FUKUIN
 70
0
 62
7
 6
CONTINUOUS
 0
LAYER
 2
TRACTOR
 70
0
 62
1
 6
CONTINUOUS
 0
LAYER
 2
CAR_HATA
 70
0
 62
7
 6
CONTINUOUS
 0
LAYER
 2
SENYUU
 70
0
 62
7
 6
CONTINUOUS
 0
LAYER
 2
ROOT
 70
0
 62
7
 6
CONTINUOUS
 0
LAYER
 2
HANKEI
 70
0
 62
7
 6
CONTINUOUS
 0
LAYER
 2
HYOU
 70
0
 62
7
 6
CONTINUOUS
 0
LAYER
 2
TRAILER2
 70
0
 62
1
 6
CONTINUOUS
 0
LAYER
 2
TRAILER3
 70
0
 62
1
 6
CONTINUOUS
 0
ENDTAB
 0
TABLE
 2
STYLE
 70
4
 0
STYLE
 2
MTC_FONT0
 70
0
 40
0.0
 41
1.0
 50
0.0
 71
0
 42
602.0
 3
MONOTXT
 4
EXTFONT
 0
STYLE
 2
MTC_FONT1
 70
0
 40
0.0
 41
1.0
 50
0.0
 71
0
 42
602.0
 3
MONOTXT
 4
EXTFONT
 0
STYLE
 2
MTC_FONT2
 70
0
 40
0.0
 41
0.5
 50
0.0
 71
0
 42
1.719999961555
 3
MONOTXT
 4
EXTFONT
 0
STYLE
 2
MTC_FONT3
 70
0
 40
0.0
 41
1.0
 50
0.0
 71
0
 42
0.0
 3
MONOTXT
 4
EXTFONT
 0
ENDTAB
 0
TABLE
 2
DIMSTYLE
 70
0
 0
ENDTAB
 0
ENDSEC
 0
SECTION
 2
BLOCKS
 0
BLOCK
 8
0
 2
MTC_ARROW_NONE
 70
0
 10
0.0
 20
0.0
 30
0.0
 3
MTC_ARROW_NONE
 0
ENDBLK
 8
0
 0
ENDSEC
 0
SECTION
 2
ENTITIES
 0
TEXT
 8
HYOU
 62
7
 10
8000.0
 20
19312.0
 30
0
 11
8000.0
 21
20000.0
 31
0
 40
688.0
 1
タイトル     72m
 41
0.5
 50
0.0
 51
0.0
 7
MTC_FONT2
 72
0
 73
3
 0
TEXT
 8
HYOU
 62
7
 10
8000.0
 20
18312.0
 30
0
 11
8000.0
 21
19000.0
 31
0
 40
688.0
 1
車両名       72m
 41
0.5
 50
0.0
 51
0.0
 7
MTC_FONT2
 72
0
 73
3
 0
TEXT
 8
HYOU
 62
7
 10
8000.0
 20
17312.0
 30
0
 11
8000.0
 21
18000.0
 31
0
 40
688.0
 1
車種         トラック
 41
0.5
 50
0.0
 51
0.0
 7
MTC_FONT2
 72
0
 73
3
 0
TEXT
 8
HYOU
 62
7
 10
8000.0
 20
16312.0
 30
0
 11
8000.0
 21
17000.0
 31
0
 40
688.0
 1
全長         9470mm
 41
0.5
 50
0.0
 51
0.0
 7
MTC_FONT2
 72
0
 73
3
 0
TEXT
 8
HYOU
 62
7
 10
8000.0
 20
15312.0
 30
0
 11
8000.0
 21
16000.0
 31
0
 40
688.0
 1
車幅         2500mm
 41
0.5
 50
0.0
 51
0.0
 7
MTC_FONT2
 72
0
 73
3
 0
TEXT
 8
HYOU
 62
7
 10
8000.0
 20
14312.0
 30
0
 11
8000.0
 21
15000.0
 31
0
 40
688.0
 1
最小回転半径 9400mm
 41
0.5
 50
0.0
 51
0.0
 7
MTC_FONT2
 72
0
 73
3
 0
TEXT
 8
HYOU
 62
7
 10
8000.0
 20
13312.0
 30
0
 11
8000.0
 21
14000.0
 31
0
 40
688.0
 1
所要道路幅   6100 (6044)mm
 41
0.5
 50
0.0
 51
0.0
 7
MTC_FONT2
 72
0
 73
3
 0
TEXT
 8
HYOU
 62
7
 10
8000.0
 20
12312.0
 30
0
 11
8000.0
 21
13000.0
 31
0
 40
688.0
 1
旋回方向     左旋回
 41
0.5
 50
0.0
 51
0.0
 7
MTC_FONT2
 72
0
 73
3
 0
TEXT
 8
HYOU
 62
7
 10
8000.0
 20
11312.0
 30
0
 11
8000.0
 21
12000.0
 31
0
 40
688.0
 1
旋回角度     90.000度
 41
0.5
 50
0.0
 51
0.0
 7
MTC_FONT2
 72
0
 73
3
 0
TEXT
 8
HYOU
 62
7
 10
8000.0
 20
10312.0
 30
0
 11
8000.0
 21
11000.0
 31
0
 40
688.0
 1
スケール     1/200
 41
0.5
 50
0.0
 51
0.0
 7
MTC_FONT2
 72
0
 73
3
 0
TEXT
 8
HYOU
 62
7
 10
8000.0
 20
9312.0
 30
0
 11
8000.0
 21
10000.0
 31
0
 40
688.0
 1
走行方法     ルート走行
 41
0.5
 50
0.0
 51
0.0
 7
MTC_FONT2
 72
0
 73
3
 0
TEXT
 8
HYOU
 62
7
 10
8000.0
 20
8312.0
 30
0
 11
8000.0
 21
9000.0
 31
0
 40
688.0
 1
  刻み角     3度
 41
0.5
 50
0.0
 51
0.0
 7
MTC_FONT2
 72
0
 73
3
 0
TEXT
 8
HYOU
 62
7
 10
8000.0
 20
7312.0
 30
0
 11
8000.0
 21
8000.0
 31
0
 40
688.0
 1
  表示間隔   4
 41
0.5
 50
0.0
 51
0.0
 7
MTC_FONT2
 72
0
 73
3
 0
ARC
 8
ROOT
 6
CONTINUOUS
 62
7
 10
33124.6917101812
 20
22140.7856642596
 30
0.0
 40
8707.03082418604
 50
0.0
 51
90.0
 0
LINE
 8
ROOT
 6
CONTINUOUS
 62
7
 10
33124.6917101812
 20
30847.8164884456
 30
0.0
 11
18124.6917101812
 21
30847.8164884456
 31
0.0
 0
LINE
 8
HANKEI
 6
CONTINUOUS
 62
7
 10
33124.6917101812
 20
22140.7856642596
 30
0.0
 11
33124.6917101812
 21
30847.8164884456
 31
0.0
 0
LINE
 8
HANKEI
 6
CONTINUOUS
 62
7
 10
33124.6917101812
 20
22140.7856642596
 30
0.0
 11
41831.7225343672
 21
22140.7856642596
 31
0.0
 0
TEXT
 8
HANKEI
 62
7
 10
36575.2071222742
 20
22224.7856642596
 30
0
 11
37478.2071222742
 21
22140.7856642596
 31
0
 40
516.0
 1
R=9.400
 41
0.5
 50
0.0
 51
0.0
 7
MTC_FONT2
 72
1
 73
1
 0
TEXT
 8
HANKEI
 62
7
 10
35852.8071222742
 20
21624.7856642596
 30
0
 11
37478.2071222742
 21
22140.7856642596
 31
0
 40
516.0
 1
R=8.707(計算値)
 41
0.5
 50
0.0
 51
0.0
 7
MTC_FONT2
 72
1
 73
3
 0
LINE
 8
CAR_HATA
 6
CONTINUOUS
 62
7
 10
41831.7225343672
 20
22140.7856642596
 30
0.0
 11
45081.7225343672
 21
22140.7856642596
 31
0.0
 0
LINE
 8
CAR_HATA
 6
CONTINUOUS
 62
7
 10
41831.7225343672
 20
12670.7856642596
 30
0.0
 11
45081.7225343672
 21
12670.7856642596
 31
0.0
 0
LINE
 8
CAR_HATA
 6
CONTINUOUS
 62
7
 10
45081.7225343672
 20
12670.7856642596
 30
0.0
 11
45081.7225343672
 21
22140.7856642596
 31
0.0
 0
LINE
 8
CAR_HATA
 6
CONTINUOUS
 62
7
 10
45081.7225343672
 20
12670.7856642596
 30
0.0
 11
44850.7824266914
 21
13070.7856642596
 31
0.0
 0
LINE
 8
CAR_HATA
 6
CONTINUOUS
 62
7
 10
45081.7225343672
 20
12670.7856642596
 30
0.0
 11
45312.6626420431
 21
13070.7856642596
 31
0.0
 0
LINE
 8
CAR_HATA
 6
CONTINUOUS
 62
7
 10
45081.7225343672
 20
22140.7856642596
 30
0.0
 11
44850.7824266914
 21
21740.7856642596
 31
0.0
 0
LINE
 8
CAR_HATA
 6
CONTINUOUS
 62
7
 10
45081.7225343672
 20
22140.7856642596
 30
0.0
 11
45312.6626420431
 21
21740.7856642596
 31
0.0
 0
TEXT
 8
CAR_HATA
 62
7
 10
45025.7225343672
 20
17061.7856642596
 30
0
 11
45081.7225343672
 21
17405.7856642596
 31
0
 40
344.0
 1
9470
 41
0.5
 50
90.0
 51
0.0
 7
MTC_FONT2
 72
1
 73
1
 0
LINE
 8
CAR_HATA
 6
CONTINUOUS
 62
7
 10
41831.7225343672
 20
22140.7856642596
 30
0.0
 11
44081.7225343672
 21
22140.7856642596
 31
0.0
 0
LINE
 8
CAR_HATA
 6
CONTINUOUS
 62
7
 10
41831.7225343672
 20
20940.7856642596
 30
0.0
 11
44081.7225343672
 21
20940.7856642596
 31
0.0
 0
LINE
 8
CAR_HATA
 6
CONTINUOUS
 62
7
 10
44081.7225343672
 20
20940.7856642596
 30
0.0
 11
44081.7225343672
 21
22140.7856642596
 31
0.0
 0
LINE
 8
CAR_HATA
 6
CONTINUOUS
 62
7
 10
44081.7225343672
 20
20940.7856642596
 30
0.0
 11
43850.7824266914
 21
21340.7856642596
 31
0.0
 0
LINE
 8
CAR_HATA
 6
CONTINUOUS
 62
7
 10
44081.7225343672
 20
20940.7856642596
 30
0.0
 11
44312.6626420431
 21
21340.7856642596
 31
0.0
 0
LINE
 8
CAR_HATA
 6
CONTINUOUS
 62
7
 10
44081.7225343672
 20
22140.7856642596
 30
0.0
 11
43850.7824266914
 21
21740.7856642596
 31
0.0
 0
LINE
 8
CAR_HATA
 6
CONTINUOUS
 62
7
 10
44081.7225343672
 20
22140.7856642596
 30
0.0
 11
44312.6626420431
 21
21740.7856642596
 31
0.0
 0
TEXT
 8
CAR_HATA
 62
7
 10
44025.7225343672
 20
21196.7856642596
 30
0
 11
44081.7225343672
 21
21540.7856642596
 31
0
 40
344.0
 1
1200
 41
0.5
 50
90.0
 51
0.0
 7
MTC_FONT2
 72
1
 73
1
 0
LINE
 8
CAR_HATA
 6
CONTINUOUS
 62
7
 10
41831.7225343672
 20
20940.7856642596
 30
0.0
 11
44081.7225343672
 21
20940.7856642596
 31
0.0
 0
LINE
 8
CAR_HATA
 6
CONTINUOUS
 62
7
 10
41831.7225343672
 20
15440.7856642596
 30
0.0
 11
44081.7225343672
 21
15440.7856642596
 31
0.0
 0
LINE
 8
CAR_HATA
 6
CONTINUOUS
 62
7
 10
44081.7225343672
 20
15440.7856642596
 30
0.0
 11
44081.7225343672
 21
20940.7856642596
 31
0.0
 0
LINE
 8
CAR_HATA
 6
CONTINUOUS
 62
7
 10
44081.7225343672
 20
15440.7856642596
 30
0.0
 11
43850.7824266914
 21
15840.7856642596
 31
0.0
 0
LINE
 8
CAR_HATA
 6
CONTINUOUS
 62
7
 10
44081.7225343672
 20
15440.7856642596
 30
0.0
 11
44312.6626420431
 21
15840.7856642596
 31
0.0
 0
LINE
 8
CAR_HATA
 6
CONTINUOUS
 62
7
 10
44081.7225343672
 20
20940.7856642596
 30
0.0
 11
43850.7824266914
 21
20540.7856642596
 31
0.0
 0
LINE
 8
CAR_HATA
 6
CONTINUOUS
 62
7
 10
44081.7225343672
 20
20940.7856642596
 30
0.0
 11
44312.6626420431
 21
20540.7856642596
 31
0.0
 0
TEXT
 8
CAR_HATA
 62
7
 10
44025.7225343672
 20
17846.7856642596
 30
0
 11
44081.7225343672
 21
18190.7856642596
 31
0
 40
344.0
 1
5500
 41
0.5
 50
90.0
 51
0.0
 7
MTC_FONT2
 72
1
 73
1
 0
LINE
 8
CAR_HATA
 6
CONTINUOUS
 62
7
 10
41831.7225343672
 20
15440.7856642596
 30
0.0
 11
44081.7225343672
 21
15440.7856642596
 31
0.0
 0
LINE
 8
CAR_HATA
 6
CONTINUOUS
 62
7
 10
41831.7225343672
 20
12670.7856642596
 30
0.0
 11
44081.7225343672
 21
12670.7856642596
 31
0.0
 0
LINE
 8
CAR_HATA
 6
CONTINUOUS
 62
7
 10
44081.7225343672
 20
12670.7856642596
 30
0.0
 11
44081.7225343672
 21
15440.7856642596
 31
0.0
 0
LINE
 8
CAR_HATA
 6
CONTINUOUS
 62
7
 10
44081.7225343672
 20
12670.7856642596
 30
0.0
 11
43850.7824266914
 21
13070.7856642596
 31
0.0
 0
LINE
 8
CAR_HATA
 6
CONTINUOUS
 62
7
 10
44081.7225343672
 20
12670.7856642596
 30
0.0
 11
44312.6626420431
 21
13070.7856642596
 31
0.0
 0
LINE
 8
CAR_HATA
 6
CONTINUOUS
 62
7
 10
44081.7225343672
 20
15440.7856642596
 30
0.0
 11
43850.7824266914
 21
15040.7856642596
 31
0.0
 0
LINE
 8
CAR_HATA
 6
CONTINUOUS
 62
7
 10
44081.7225343672
 20
15440.7856642596
 30
0.0
 11
44312.6626420431
 21
15040.7856642596
 31
0.0
 0
TEXT
 8
CAR_HATA
 62
7
 10
44025.7225343672
 20
13711.7856642596
 30
0
 11
44081.7225343672
 21
14055.7856642596
 31
0
 40
344.0
 1
2770
 41
0.5
 50
90.0
 51
0.0
 7
MTC_FONT2
 72
1
 73
1
 0
LINE
 8
CAR_HATA
 6
CONTINUOUS
 62
7
 10
40581.7225343672
 20
12670.7856642596
 30
0.0
 11
40581.7225343672
 21
11670.7856642596
 31
0.0
 0
LINE
 8
CAR_HATA
 6
CONTINUOUS
 62
7
 10
43081.7225343672
 20
12670.7856642596
 30
0.0
 11
43081.7225343672
 21
11670.7856642596
 31
0.0
 0
LINE
 8
CAR_HATA
 6
CONTINUOUS
 62
7
 10
40581.7225343672
 20
11670.7856642596
 30
0.0
 11
43081.7225343672
 21
11670.7856642596
 31
0.0
 0
LINE
 8
CAR_HATA
 6
CONTINUOUS
 62
7
 10
40581.7225343672
 20
11670.7856642596
 30
0.0
 11
40981.7225343672
 21
11901.7257719354
 31
0.0
 0
LINE
 8
CAR_HATA
 6
CONTINUOUS
 62
7
 10
40581.7225343672
 20
11670.7856642596
 30
0.0
 11
40981.7225343672
 21
11439.8455565837
 31
0.0
 0
LINE
 8
CAR_HATA
 6
CONTINUOUS
 62
7
 10
43081.7225343672
 20
11670.7856642596
 30
0.0
 11
42681.7225343672
 21
11901.7257719354
 31
0.0
 0
LINE
 8
CAR_HATA
 6
CONTINUOUS
 62
7
 10
43081.7225343672
 20
11670.7856642596
 30
0.0
 11
42681.7225343672
 21
11439.8455565837
 31
0.0
 0
TEXT
 8
CAR_HATA
 62
7
 10
41487.7225343672
 20
11726.7856642596
 30
0
 11
41831.7225343672
 21
11670.7856642596
 31
0
 40
344.0
 1
2500
 41
0.5
 50
0.0
 51
0.0
 7
MTC_FONT2
 72
1
 73
1
 0
LINE
 8
CAR_HATA
 6
CONTINUOUS
 62
7
 10
42704.7225343672
 20
20940.7856642596
 30
0.0
 11
35081.7309956077
 21
15440.7856642596
 31
0.0
 0
LINE
 8
CAR_HATA
 6
CONTINUOUS
 62
7
 10
42704.7225343672
 20
20940.7856642596
 30
0.0
 11
42515.4644467835
 21
20519.4607188582
 31
0.0
 0
LINE
 8
CAR_HATA
 6
CONTINUOUS
 62
7
 10
42704.7225343672
 20
20940.7856642596
 30
0.0
 11
42245.2153846097
 21
20894.025503278
 31
0.0
 0
TEXT
 8
CAR_HATA
 62
7
 10
35048.9650381609
 20
15486.1992308735
 30
0
 11
35081.7309956077
 21
15440.7856642596
 31
0
 40
344.0
 1
R=9400
 41
0.5
 50
35.8105058363628
 51
0.0
 7
MTC_FONT2
 72
0
 73
1
 0
ARC
 8
CAR_HATA
 6
CONTINUOUS
 62
7
 10
35081.7309956077
 20
15440.7856642596
 30
0.0
 40
9400.0
 50
30.8105058363628
 51
45.8105058363628
 0
LINE
 8
CAR_HATA
 6
CONTINUOUS
 62
7
 10
43264.0052093626
 20
9670.78566425957
 30
0.0
 11
37220.610914434
 21
9670.78566425957
 31
0.0
 0
LINE
 8
CAR_HATA
 6
CONTINUOUS
 62
7
 10
43264.0052093626
 20
9670.78566425957
 30
0.0
 11
42864.0052093626
 21
9439.84555658372
 31
0.0
 0
LINE
 8
CAR_HATA
 6
CONTINUOUS
 62
7
 10
43264.0052093626
 20
9670.78566425957
 30
0.0
 11
42864.0052093626
 21
9901.72577193542
 31
0.0
 0
LINE
 8
CAR_HATA
 6
CONTINUOUS
 62
7
 10
37220.610914434
 20
9670.78566425957
 30
0.0
 11
37620.610914434
 21
9439.84555658372
 31
0.0
 0
LINE
 8
CAR_HATA
 6
CONTINUOUS
 62
7
 10
37220.610914434
 20
9670.78566425957
 30
0.0
 11
37620.610914434
 21
9901.72577193542
 31
0.0
 0
TEXT
 8
CAR_HATA
 62
7
 10
39898.3080618983
 20
9726.78566425957
 30
0
 11
40242.3080618983
 21
9670.78566425957
 31
0
 40
344.0
 1
6100
 41
0.5
 50
0.0
 51
0.0
 7
MTC_FONT2
 72
1
 73
1
 0
LINE
 8
CAR_HATA
 6
CONTINUOUS
 62
7
 10
14118.2774656328
 20
26516.7601484876
 30
0.0
 11
14118.2774656328
 21
32560.1544434163
 31
0.0
 0
LINE
 8
CAR_HATA
 6
CONTINUOUS
 62
7
 10
14118.2774656328
 20
26516.7601484876
 30
0.0
 11
13887.3373579569
 21
26916.7601484877
 31
0.0
 0
LINE
 8
CAR_HATA
 6
CONTINUOUS
 62
7
 10
14118.2774656328
 20
26516.7601484876
 30
0.0
 11
14349.2175733086
 21
26916.7601484877
 31
0.0
 0
LINE
 8
CAR_HATA
 6
CONTINUOUS
 62
7
 10
14118.2774656328
 20
32560.1544434163
 30
0.0
 11
13887.3373579569
 21
32160.1544434163
 31
0.0
 0
LINE
 8
CAR_HATA
 6
CONTINUOUS
 62
7
 10
14118.2774656328
 20
32560.1544434163
 30
0.0
 11
14349.2175733086
 21
32160.1544434163
 31
0.0
 0
TEXT
 8
CAR_HATA
 62
7
 10
14062.2774656328
 20
29194.457295952
 30
0
 11
14118.2774656328
 21
29538.457295952
 31
0
 40
344.0
 1
6100
 41
0.5
 50
90.0
 51
0.0
 7
MTC_FONT2
 72
1
 73
1
 0
POLYLINE
 8
TRACTOR
 6
CONTINUOUS
 62
1
 66
1
 10
0.0
 20
0.0
 30
0.0
 70
129
 0
VERTEX
 8
TRACTOR
 6
CONTINUOUS
 62
1
 10
40581.7225343672
 20
22140.7856642596
 30
0.0
 0
VERTEX
 8
TRACTOR
 6
CONTINUOUS
 62
1
 10
43081.7225343672
 20
22140.7856642596
 30
0.0
 0
VERTEX
 8
TRACTOR
 6
CONTINUOUS
 62
1
 10
43081.7225343672
 20
12670.7856642596
 30
0.0
 0
VERTEX
 8
TRACTOR
 6
CONTINUOUS
 62
1
 10
40581.7225343672
 20
12670.7856642596
 30
0.0
 0
SEQEND
 0
POLYLINE
 8
TRACTOR
 6
CONTINUOUS
 62
1
 66
1
 10
0.0
 20
0.0
 30
0.0
 70
129
 0
VERTEX
 8
TRACTOR
 6
CONTINUOUS
 62
1
 10
40579.7728590625
 20
23507.9719538194
 30
0.0
 0
VERTEX
 8
TRACTOR
 6
CONTINUOUS
 62
1
 10
43079.772760059
 20
23508.675528699
 30
0.0
 0
VERTEX
 8
TRACTOR
 6
CONTINUOUS
 62
1
 10
43082.4379017027
 20
14038.6759037243
 30
0.0
 0
VERTEX
 8
TRACTOR
 6
CONTINUOUS
 62
1
 10
40582.4380007063
 20
14037.9723288447
 30
0.0
 0
SEQEND
 0
POLYLINE
 8
TRACTOR
 6
CONTINUOUS
 62
1
 66
1
 10
0.0
 20
0.0
 30
0.0
 70
129
 0
VERTEX
 8
TRACTOR
 6
CONTINUOUS
 62
1
 10
40311.9463115002
 20
25268.0509905168
 30
0.0
 0
VERTEX
 8
TRACTOR
 6
CONTINUOUS
 62
1
 10
42810.2701660153
 20
25359.5819577412
 30
0.0
 0
VERTEX
 8
TRACTOR
 6
CONTINUOUS
 62
1
 10
43156.9894698611
 20
15895.9311968382
 30
0.0
 0
VERTEX
 8
TRACTOR
 6
CONTINUOUS
 62
1
 10
40658.665615346
 20
15804.4002296138
 30
0.0
 0
SEQEND
 0
POLYLINE
 8
TRACTOR
 6
CONTINUOUS
 62
1
 66
1
 10
0.0
 20
0.0
 30
0.0
 70
129
 0
VERTEX
 8
TRACTOR
 6
CONTINUOUS
 62
1
 10
39623.5759294718
 20
26874.915551074
 30
0.0
 0
VERTEX
 8
TRACTOR
 6
CONTINUOUS
 62
1
 10
42105.2792349304
 20
27176.8239869879
 30
0.0
 0
VERTEX
 8
TRACTOR
 6
CONTINUOUS
 62
1
 10
43248.9083901722
 20
17776.1318659108
 30
0.0
 0
VERTEX
 8
TRACTOR
 6
CONTINUOUS
 62
1
 10
40767.2050847136
 20
17474.2234299969
 30
0.0
 0
SEQEND
 0
POLYLINE
 8
TRACTOR
 6
CONTINUOUS
 62
1
 66
1
 10
0.0
 20
0.0
 30
0.0
 70
129
 0
VERTEX
 8
TRACTOR
 6
CONTINUOUS
 62
1
 10
38570.2238743118
 20
28262.7430045855
 30
0.0
 0
VERTEX
 8
TRACTOR
 6
CONTINUOUS
 62
1
 10
40998.9733989833
 20
28855.3438368562
 30
0.0
 0
VERTEX
 8
TRACTOR
 6
CONTINUOUS
 62
1
 10
43243.745351625
 20
19655.2406374006
 30
0.0
 0
VERTEX
 8
TRACTOR
 6
CONTINUOUS
 62
1
 10
40814.9958269535
 20
19062.6398051299
 30
0.0
 0
SEQEND
 0
POLYLINE
 8
TRACTOR
 6
CONTINUOUS
 62
1
 66
1
 10
0.0
 20
0.0
 30
0.0
 70
129
 0
VERTEX
 8
TRACTOR
 6
CONTINUOUS
 62
1
 10
37218.3152789856
 20
29370.5557477482
 30
0.0
 0
VERTEX
 8
TRACTOR
 6
CONTINUOUS
 62
1
 10
39538.5490756074
 20
30301.423691666
 30
0.0
 0
VERTEX
 8
TRACTOR
 6
CONTINUOUS
 62
1
 10
43064.6768471681
 20
21512.3780700625
 30
0.0
 0
VERTEX
 8
TRACTOR
 6
CONTINUOUS
 62
1
 10
40744.4430505463
 20
20581.5101261447
 30
0.0
 0
SEQEND
 0
POLYLINE
 8
TRACTOR
 6
CONTINUOUS
 62
1
 66
1
 10
0.0
 20
0.0
 30
0.0
 70
129
 0
VERTEX
 8
TRACTOR
 6
CONTINUOUS
 62
1
 10
35642.8458885111
 20
30148.655474321
 30
0.0
 0
VERTEX
 8
TRACTOR
 6
CONTINUOUS
 62
1
 10
37785.9041570543
 20
31436.0176058242
 30
0.0
 0
VERTEX
 8
TRACTOR
 6
CONTINUOUS
 62
1
 10
42662.4319111886
 20
23318.1128845826
 30
0.0
 0
VERTEX
 8
TRACTOR
 6
CONTINUOUS
 62
1
 10
40519.3736426453
 20
22030.7507530793
 30
0.0
 0
SEQEND
 0
POLYLINE
 8
TRACTOR
 6
CONTINUOUS
 62
1
 66
1
 10
0.0
 20
0.0
 30
0.0
 70
129
 0
VERTEX
 8
TRACTOR
 6
CONTINUOUS
 62
1
 10
33925.059156526
 20
30562.2252505756
 30
0.0
 0
VERTEX
 8
TRACTOR
 6
CONTINUOUS
 62
1
 10
35816.3226517805
 20
32197.1938715338
 30
0.0
 0
VERTEX
 8
TRACTOR
 6
CONTINUOUS
 62
1
 10
42009.58378797
 20
25033.0877515098
 30
0.0
 0
VERTEX
 8
TRACTOR
 6
CONTINUOUS
 62
1
 10
40118.3202927155
 20
23398.1191305516
 30
0.0
 0
SEQEND
 0
POLYLINE
 8
TRACTOR
 6
CONTINUOUS
 62
1
 66
1
 10
0.0
 20
0.0
 30
0.0
 70
129
 0
VERTEX
 8
TRACTOR
 6
CONTINUOUS
 62
1
 10
32149.6474180725
 20
30593.2214863528
 30
0.0
 0
VERTEX
 8
TRACTOR
 6
CONTINUOUS
 62
1
 10
33715.5237305951
 20
32542.0753479547
 30
0.0
 0
VERTEX
 8
TRACTOR
 6
CONTINUOUS
 62
1
 10
41097.7821583432
 20
26610.5358761193
 30
0.0
 0
VERTEX
 8
TRACTOR
 6
CONTINUOUS
 62
1
 10
39531.9058458206
 20
24661.6820145174
 30
0.0
 0
SEQEND
 0
POLYLINE
 8
TRACTOR
 6
CONTINUOUS
 62
1
 66
1
 10
0.0
 20
0.0
 30
0.0
 70
129
 0
VERTEX
 8
TRACTOR
 6
CONTINUOUS
 62
1
 10
30393.8285338021
 20
30323.8236858819
 30
0.0
 0
VERTEX
 8
TRACTOR
 6
CONTINUOUS
 62
1
 10
31589.3031502768
 20
32519.464922825
 30
0.0
 0
VERTEX
 8
TRACTOR
 6
CONTINUOUS
 62
1
 10
39906.392155817
 20
27991.0070756189
 30
0.0
 0
VERTEX
 8
TRACTOR
 6
CONTINUOUS
 62
1
 10
38710.9175393423
 20
25795.3658386759
 30
0.0
 0
SEQEND
 0
POLYLINE
 8
TRACTOR
 6
CONTINUOUS
 62
1
 66
1
 10
0.0
 20
0.0
 30
0.0
 70
129
 0
VERTEX
 8
TRACTOR
 6
CONTINUOUS
 62
1
 10
28657.5846199176
 20
30102.9430319107
 30
0.0
 0
VERTEX
 8
TRACTOR
 6
CONTINUOUS
 62
1
 10
29541.6630245625
 20
32441.4052134396
 30
0.0
 0
VERTEX
 8
TRACTOR
 6
CONTINUOUS
 62
1
 10
38399.7577681937
 20
29092.5162166448
 30
0.0
 0
VERTEX
 8
TRACTOR
 6
CONTINUOUS
 62
1
 10
37515.6793635488
 20
26754.054035116
 30
0.0
 0
SEQEND
 0
POLYLINE
 8
TRACTOR
 6
CONTINUOUS
 62
1
 66
1
 10
0.0
 20
0.0
 30
0.0
 70
129
 0
VERTEX
 8
TRACTOR
 6
CONTINUOUS
 62
1
 10
26916.9746398362
 20
29949.4865022154
 30
0.0
 0
VERTEX
 8
TRACTOR
 6
CONTINUOUS
 62
1
 10
27561.5690157297
 20
32364.9570755336
 30
0.0
 0
VERTEX
 8
TRACTOR
 6
CONTINUOUS
 62
1
 10
36711.3715474593
 20
29923.233579649
 30
0.0
 0
VERTEX
 8
TRACTOR
 6
CONTINUOUS
 62
1
 10
36066.7771715657
 20
27507.7630063307
 30
0.0
 0
SEQEND
 0
POLYLINE
 8
TRACTOR
 6
CONTINUOUS
 62
1
 66
1
 10
0.0
 20
0.0
 30
0.0
 70
129
 0
VERTEX
 8
TRACTOR
 6
CONTINUOUS
 62
1
 10
25163.1594684062
 20
29843.6593194209
 30
0.0
 0
VERTEX
 8
TRACTOR
 6
CONTINUOUS
 62
1
 10
25629.6034587347
 20
32299.7598881856
 30
0.0
 0
VERTEX
 8
TRACTOR
 6
CONTINUOUS
 62
1
 10
34933.3124132155
 20
30532.8700528213
 30
0.0
 0
VERTEX
 8
TRACTOR
 6
CONTINUOUS
 62
1
 10
34466.868422887
 20
28076.7694840566
 30
0.0
 0
SEQEND
 0
POLYLINE
 8
TRACTOR
 6
CONTINUOUS
 62
1
 66
1
 10
0.0
 20
0.0
 30
0.0
 70
129
 0
VERTEX
 8
TRACTOR
 6
CONTINUOUS
 62
1
 10
23394.7246438661
 20
29770.5440250793
 30
0.0
 0
VERTEX
 8
TRACTOR
 6
CONTINUOUS
 62
1
 10
23730.9190250917
 20
32247.8355577884
 30
0.0
 0
VERTEX
 8
TRACTOR
 6
CONTINUOUS
 62
1
 10
33114.8993509939
 20
30974.331241706
 30
0.0
 0
VERTEX
 8
TRACTOR
 6
CONTINUOUS
 62
1
 10
32778.7049697683
 20
28497.0397089969
 30
0.0
 0
SEQEND
 0
POLYLINE
 8
TRACTOR
 6
CONTINUOUS
 62
1
 66
1
 10
0.0
 20
0.0
 30
0.0
 70
129
 0
VERTEX
 8
TRACTOR
 6
CONTINUOUS
 62
1
 10
21613.2523609839
 20
29719.7496791504
 30
0.0
 0
VERTEX
 8
TRACTOR
 6
CONTINUOUS
 62
1
 10
21855.0688741747
 20
32208.027150404
 30
0.0
 0
VERTEX
 8
TRACTOR
 6
CONTINUOUS
 62
1
 10
31280.6639352834
 20
31292.0261984372
 30
0.0
 0
VERTEX
 8
TRACTOR
 6
CONTINUOUS
 62
1
 10
31038.8474220926
 20
28803.7487271836
 30
0.0
 0
SEQEND
 0
POLYLINE
 8
TRACTOR
 6
CONTINUOUS
 62
1
 66
1
 10
0.0
 20
0.0
 30
0.0
 70
129
 0
VERTEX
 8
TRACTOR
 6
CONTINUOUS
 62
1
 10
19821.1737742938
 20
29684.2376379989
 30
0.0
 0
VERTEX
 8
TRACTOR
 6
CONTINUOUS
 62
1
 10
19994.9210335155
 20
32178.1927077451
 30
0.0
 0
VERTEX
 8
TRACTOR
 6
CONTINUOUS
 62
1
 10
29442.0228377142
 20
31520.0380898137
 30
0.0
 0
VERTEX
 8
TRACTOR
 6
CONTINUOUS
 62
1
 10
29268.2755784926
 20
29026.0830200674
 30
0.0
 0
SEQEND
 0
POLYLINE
 8
TRACTOR
 6
CONTINUOUS
 62
1
 66
1
 10
0.0
 20
0.0
 30
0.0
 70
129
 0
VERTEX
 8
TRACTOR
 6
CONTINUOUS
 62
1
 10
18020.8682260903
 20
29659.2638798505
 30
0.0
 0
VERTEX
 8
TRACTOR
 6
CONTINUOUS
 62
1
 10
18145.6383558187
 20
32156.14842158
 30
0.0
 0
VERTEX
 8
TRACTOR
 6
CONTINUOUS
 62
1
 10
27603.8369998899
 20
31683.5191701686
 30
0.0
 0
VERTEX
 8
TRACTOR
 6
CONTINUOUS
 62
1
 10
27479.0668701615
 20
29186.6346284391
 30
0.0
 0
SEQEND
 0
POLYLINE
 8
TRACTOR
 6
CONTINUOUS
 62
1
 66
1
 10
0.0
 20
0.0
 30
0.0
 70
129
 0
VERTEX
 8
TRACTOR
 6
CONTINUOUS
 62
1
 10
17118.2774656328
 20
29649.6801217018
 30
0.0
 0
VERTEX
 8
TRACTOR
 6
CONTINUOUS
 62
1
 10
17223.9971888621
 20
32147.4437894895
 30
0.0
 0
VERTEX
 8
TRACTOR
 6
CONTINUOUS
 62
1
 10
26685.525962442
 20
31746.9774778968
 30
0.0
 0
VERTEX
 8
TRACTOR
 6
CONTINUOUS
 62
1
 10
26579.8062392126
 20
29249.2138101091
 30
0.0
 0
SEQEND
 0
LINE
 8
FUKUIN
 6
CONTINUOUS
 62
7
 10
43264.0052093626
 20
9670.78566425957
 30
0.0
 11
43264.0052093626
 21
32560.1544434163
 31
0.0
 0
LINE
 8
FUKUIN
 6
CONTINUOUS
 62
7
 10
37220.610914434
 20
9670.78566425957
 30
0.0
 11
37220.610914434
 21
26516.7601484877
 31
0.0
 0
LINE
 8
FUKUIN
 6
CONTINUOUS
 62
7
 10
43264.0052093626
 20
32560.1544434163
 30
0.0
 11
14118.2774656328
 21
32560.1544434163
 31
0.0
 0
LINE
 8
FUKUIN
 6
CONTINUOUS
 62
7
 10
37220.610914434
 20
26516.7601484877
 30
0.0
 11
14118.2774656328
 21
26516.7601484876
 31
0.0
 0
ENDSEC
 0
EOF
