 0
SECTION
 2
HEADER
 9
$ACADVER
 1
AC1009
 9
$EXTMIN
 10
0.0
 20
0.0
 9
$EXTMAX
 10
59400.0
 20
42000.0
 9
$LIMMIN
 10
0.0
 20
0.0
 9
$LIMMAX
 10
59400.0
 20
42000.0
 9
$LTSCALE
 40
0.2
 9
$DIMSCALE
 40
10.0
 0
ENDSEC
 0
SECTION
 2
TABLES
 0
TABLE
 2
LTYPE
 70
9
 0
LTYPE
 2
CONTINUOUS
 70
0
 3
Solid line
 72
65
 73
0
 40
0.0
 0
LTYPE
 2
DASH
 70
0
 3
DASH
 72
65
 73
2
 40
7500.0
 49
6000.0
 49
-1500.0
 0
LTYPE
 2
DASHDOT
 70
0
 3
DASHDOT
 72
65
 73
4
 40
18500.0
 49
12000.0
 49
-1500.0
 49
3500.0
 49
-1500.0
 0
LTYPE
 2
DASHDOTDOT
 70
0
 3
DASHDOTDOT
 72
65
 73
6
 40
23500.0
 49
12000.0
 49
-1500.0
 49
3500.0
 49
-1500.0
 49
3500.0
 49
-1500.0
 0
LTYPE
 2
DOT
 70
0
 3
DOT
 72
65
 73
2
 40
1750.0
 49
250.0
 49
-1500.0
 0
LTYPE
 2
DASHED1
 70
0
 3
DASHED1
 72
65
 73
2
 40
5000.0
 49
2500.0
 49
-2500.0
 0
LTYPE
 2
DASHED2
 70
0
 3
DASHED2
 72
65
 73
2
 40
2500.0
 49
1250.0
 49
-1250.0
 0
LTYPE
 2
CENTER1
 70
0
 3
CENTER1
 72
65
 73
4
 40
10000.0
 49
6250.0
 49
-1250.0
 49
1250.0
 49
-1250.0
 0
LTYPE
 2
CENTER2
 70
0
 3
CENTER2
 72
65
 73
6
 40
9500.0
 49
3250.0
 49
-1250.0
 49
1250.0
 49
-1250.0
 49
1250.0
 49
-1250.0
 0
ENDTAB
 0
TABLE
 2
LAYER
 70
11
 0
LAYER
 2
SYSLAYER
 70
0
 62
7
 6
CONTINUOUS
 0
LAYER
 2
SYSLAYER_RST
 70
0
 62
7
 6
CONTINUOUS
 0
LAYER
 2
FUKUIN
 70
0
 62
7
 6
CONTINUOUS
 0
LAYER
 2
TRACTOR
 70
0
 62
1
 6
CONTINUOUS
 0
LAYER
 2
CAR_HATA
 70
0
 62
7
 6
CONTINUOUS
 0
LAYER
 2
SENYUU
 70
0
 62
7
 6
CONTINUOUS
 0
LAYER
 2
ROOT
 70
0
 62
7
 6
CONTINUOUS
 0
LAYER
 2
HANKEI
 70
0
 62
7
 6
CONTINUOUS
 0
LAYER
 2
HYOU
 70
0
 62
7
 6
CONTINUOUS
 0
LAYER
 2
TRAILER2
 70
0
 62
1
 6
CONTINUOUS
 0
LAYER
 2
TRAILER3
 70
0
 62
1
 6
CONTINUOUS
 0
ENDTAB
 0
TABLE
 2
STYLE
 70
4
 0
STYLE
 2
MTC_FONT0
 70
0
 40
0.0
 41
1.0
 50
0.0
 71
0
 42
602.0
 3
MONOTXT
 4
EXTFONT
 0
STYLE
 2
MTC_FONT1
 70
0
 40
0.0
 41
1.0
 50
0.0
 71
0
 42
602.0
 3
MONOTXT
 4
EXTFONT
 0
STYLE
 2
MTC_FONT2
 70
0
 40
0.0
 41
0.5
 50
0.0
 71
0
 42
1.719999961555
 3
MONOTXT
 4
EXTFONT
 0
STYLE
 2
MTC_FONT3
 70
0
 40
0.0
 41
1.0
 50
0.0
 71
0
 42
0.0
 3
MONOTXT
 4
EXTFONT
 0
ENDTAB
 0
TABLE
 2
DIMSTYLE
 70
0
 0
ENDTAB
 0
ENDSEC
 0
SECTION
 2
BLOCKS
 0
BLOCK
 8
0
 2
MTC_ARROW_NONE
 70
0
 10
0.0
 20
0.0
 30
0.0
 3
MTC_ARROW_NONE
 0
ENDBLK
 8
0
 0
ENDSEC
 0
SECTION
 2
ENTITIES
 0
TEXT
 8
HYOU
 62
7
 10
8000.0
 20
19312.0
 30
0
 11
8000.0
 21
20000.0
 31
0
 40
688.0
 1
タイトル     62m
 41
0.5
 50
0.0
 51
0.0
 7
MTC_FONT2
 72
0
 73
3
 0
TEXT
 8
HYOU
 62
7
 10
8000.0
 20
18312.0
 30
0
 11
8000.0
 21
19000.0
 31
0
 40
688.0
 1
車両名       62m
 41
0.5
 50
0.0
 51
0.0
 7
MTC_FONT2
 72
0
 73
3
 0
TEXT
 8
HYOU
 62
7
 10
8000.0
 20
17312.0
 30
0
 11
8000.0
 21
18000.0
 31
0
 40
688.0
 1
車種         トラック
 41
0.5
 50
0.0
 51
0.0
 7
MTC_FONT2
 72
0
 73
3
 0
TEXT
 8
HYOU
 62
7
 10
8000.0
 20
16312.0
 30
0
 11
8000.0
 21
17000.0
 31
0
 40
688.0
 1
全長         8470mm
 41
0.5
 50
0.0
 51
0.0
 7
MTC_FONT2
 72
0
 73
3
 0
TEXT
 8
HYOU
 62
7
 10
8000.0
 20
15312.0
 30
0
 11
8000.0
 21
16000.0
 31
0
 40
688.0
 1
車幅         2500mm
 41
0.5
 50
0.0
 51
0.0
 7
MTC_FONT2
 72
0
 73
3
 0
TEXT
 8
HYOU
 62
7
 10
8000.0
 20
14312.0
 30
0
 11
8000.0
 21
15000.0
 31
0
 40
688.0
 1
最小回転半径 8300mm
 41
0.5
 50
0.0
 51
0.0
 7
MTC_FONT2
 72
0
 73
3
 0
TEXT
 8
HYOU
 62
7
 10
8000.0
 20
13312.0
 30
0
 11
8000.0
 21
14000.0
 31
0
 40
688.0
 1
所要道路幅   5600 (5592)mm
 41
0.5
 50
0.0
 51
0.0
 7
MTC_FONT2
 72
0
 73
3
 0
TEXT
 8
HYOU
 62
7
 10
8000.0
 20
12312.0
 30
0
 11
8000.0
 21
13000.0
 31
0
 40
688.0
 1
旋回方向     左旋回
 41
0.5
 50
0.0
 51
0.0
 7
MTC_FONT2
 72
0
 73
3
 0
TEXT
 8
HYOU
 62
7
 10
8000.0
 20
11312.0
 30
0
 11
8000.0
 21
12000.0
 31
0
 40
688.0
 1
旋回角度     90.000度
 41
0.5
 50
0.0
 51
0.0
 7
MTC_FONT2
 72
0
 73
3
 0
TEXT
 8
HYOU
 62
7
 10
8000.0
 20
10312.0
 30
0
 11
8000.0
 21
11000.0
 31
0
 40
688.0
 1
スケール     1/200
 41
0.5
 50
0.0
 51
0.0
 7
MTC_FONT2
 72
0
 73
3
 0
TEXT
 8
HYOU
 62
7
 10
8000.0
 20
9312.0
 30
0
 11
8000.0
 21
10000.0
 31
0
 40
688.0
 1
走行方法     ルート走行
 41
0.5
 50
0.0
 51
0.0
 7
MTC_FONT2
 72
0
 73
3
 0
TEXT
 8
HYOU
 62
7
 10
8000.0
 20
8312.0
 30
0
 11
8000.0
 21
9000.0
 31
0
 40
688.0
 1
  刻み角     3度
 41
0.5
 50
0.0
 51
0.0
 7
MTC_FONT2
 72
0
 73
3
 0
TEXT
 8
HYOU
 62
7
 10
8000.0
 20
7312.0
 30
0
 11
8000.0
 21
8000.0
 31
0
 40
688.0
 1
  表示間隔   4
 41
0.5
 50
0.0
 51
0.0
 7
MTC_FONT2
 72
0
 73
3
 0
ARC
 8
ROOT
 6
CONTINUOUS
 62
7
 10
33654.7654623396
 20
22191.5871337901
 30
0.0
 40
7607.02373258146
 50
0.0
 51
90.0
 0
LINE
 8
ROOT
 6
CONTINUOUS
 62
7
 10
33654.7654623396
 20
29798.6108663716
 30
0.0
 11
18654.7654623396
 21
29798.6108663716
 31
0.0
 0
LINE
 8
HANKEI
 6
CONTINUOUS
 62
7
 10
33654.7654623396
 20
22191.5871337901
 30
0.0
 11
33654.7654623396
 21
29798.6108663716
 31
0.0
 0
LINE
 8
HANKEI
 6
CONTINUOUS
 62
7
 10
33654.7654623396
 20
22191.5871337901
 30
0.0
 11
41261.7891949211
 21
22191.5871337901
 31
0.0
 0
TEXT
 8
HANKEI
 62
7
 10
36555.2773286303
 20
22275.5871337901
 30
0
 11
37458.2773286303
 21
22191.5871337901
 31
0
 40
516.0
 1
R=8.300
 41
0.5
 50
0.00000000000001
 51
0.0
 7
MTC_FONT2
 72
1
 73
1
 0
TEXT
 8
HANKEI
 62
7
 10
35832.8773286303
 20
21675.5871337901
 30
0
 11
37458.2773286303
 21
22191.5871337901
 31
0
 40
516.0
 1
R=7.607(計算値)
 41
0.5
 50
0.00000000000001
 51
0.0
 7
MTC_FONT2
 72
1
 73
3
 0
LINE
 8
CAR_HATA
 6
CONTINUOUS
 62
7
 10
41261.7891949211
 20
22191.5871337901
 30
0.0
 11
44511.7891949211
 21
22191.5871337901
 31
0.0
 0
LINE
 8
CAR_HATA
 6
CONTINUOUS
 62
7
 10
41261.7891949211
 20
13721.5871337901
 30
0.0
 11
44511.7891949211
 21
13721.5871337901
 31
0.0
 0
LINE
 8
CAR_HATA
 6
CONTINUOUS
 62
7
 10
44511.7891949211
 20
13721.5871337901
 30
0.0
 11
44511.7891949211
 21
22191.5871337901
 31
0.0
 0
LINE
 8
CAR_HATA
 6
CONTINUOUS
 62
7
 10
44511.7891949211
 20
13721.5871337901
 30
0.0
 11
44280.8490872452
 21
14121.5871337901
 31
0.0
 0
LINE
 8
CAR_HATA
 6
CONTINUOUS
 62
7
 10
44511.7891949211
 20
13721.5871337901
 30
0.0
 11
44742.7293025969
 21
14121.5871337901
 31
0.0
 0
LINE
 8
CAR_HATA
 6
CONTINUOUS
 62
7
 10
44511.7891949211
 20
22191.5871337901
 30
0.0
 11
44280.8490872452
 21
21791.5871337901
 31
0.0
 0
LINE
 8
CAR_HATA
 6
CONTINUOUS
 62
7
 10
44511.7891949211
 20
22191.5871337901
 30
0.0
 11
44742.7293025969
 21
21791.5871337901
 31
0.0
 0
TEXT
 8
CAR_HATA
 62
7
 10
44455.7891949211
 20
17612.5871337901
 30
0
 11
44511.7891949211
 21
17956.5871337901
 31
0
 40
344.0
 1
8470
 41
0.5
 50
90.0
 51
0.0
 7
MTC_FONT2
 72
1
 73
1
 0
LINE
 8
CAR_HATA
 6
CONTINUOUS
 62
7
 10
41261.7891949211
 20
22191.5871337901
 30
0.0
 11
43511.7891949211
 21
22191.5871337901
 31
0.0
 0
LINE
 8
CAR_HATA
 6
CONTINUOUS
 62
7
 10
41261.7891949211
 20
20991.5871337901
 30
0.0
 11
43511.7891949211
 21
20991.5871337901
 31
0.0
 0
LINE
 8
CAR_HATA
 6
CONTINUOUS
 62
7
 10
43511.7891949211
 20
20991.5871337901
 30
0.0
 11
43511.7891949211
 21
22191.5871337901
 31
0.0
 0
LINE
 8
CAR_HATA
 6
CONTINUOUS
 62
7
 10
43511.7891949211
 20
20991.5871337901
 30
0.0
 11
43280.8490872452
 21
21391.5871337901
 31
0.0
 0
LINE
 8
CAR_HATA
 6
CONTINUOUS
 62
7
 10
43511.7891949211
 20
20991.5871337901
 30
0.0
 11
43742.7293025969
 21
21391.5871337901
 31
0.0
 0
LINE
 8
CAR_HATA
 6
CONTINUOUS
 62
7
 10
43511.7891949211
 20
22191.5871337901
 30
0.0
 11
43280.8490872452
 21
21791.5871337901
 31
0.0
 0
LINE
 8
CAR_HATA
 6
CONTINUOUS
 62
7
 10
43511.7891949211
 20
22191.5871337901
 30
0.0
 11
43742.7293025969
 21
21791.5871337901
 31
0.0
 0
TEXT
 8
CAR_HATA
 62
7
 10
43455.7891949211
 20
21247.5871337901
 30
0
 11
43511.7891949211
 21
21591.5871337901
 31
0
 40
344.0
 1
1200
 41
0.5
 50
90.0
 51
0.0
 7
MTC_FONT2
 72
1
 73
1
 0
LINE
 8
CAR_HATA
 6
CONTINUOUS
 62
7
 10
41261.7891949211
 20
20991.5871337901
 30
0.0
 11
43511.7891949211
 21
20991.5871337901
 31
0.0
 0
LINE
 8
CAR_HATA
 6
CONTINUOUS
 62
7
 10
41261.7891949211
 20
16161.5871337901
 30
0.0
 11
43511.7891949211
 21
16161.5871337901
 31
0.0
 0
LINE
 8
CAR_HATA
 6
CONTINUOUS
 62
7
 10
43511.7891949211
 20
16161.5871337901
 30
0.0
 11
43511.7891949211
 21
20991.5871337901
 31
0.0
 0
LINE
 8
CAR_HATA
 6
CONTINUOUS
 62
7
 10
43511.7891949211
 20
16161.5871337901
 30
0.0
 11
43280.8490872452
 21
16561.5871337901
 31
0.0
 0
LINE
 8
CAR_HATA
 6
CONTINUOUS
 62
7
 10
43511.7891949211
 20
16161.5871337901
 30
0.0
 11
43742.7293025969
 21
16561.5871337901
 31
0.0
 0
LINE
 8
CAR_HATA
 6
CONTINUOUS
 62
7
 10
43511.7891949211
 20
20991.5871337901
 30
0.0
 11
43280.8490872452
 21
20591.5871337901
 31
0.0
 0
LINE
 8
CAR_HATA
 6
CONTINUOUS
 62
7
 10
43511.7891949211
 20
20991.5871337901
 30
0.0
 11
43742.7293025969
 21
20591.5871337901
 31
0.0
 0
TEXT
 8
CAR_HATA
 62
7
 10
43455.7891949211
 20
18232.5871337901
 30
0
 11
43511.7891949211
 21
18576.5871337901
 31
0
 40
344.0
 1
4830
 41
0.5
 50
90.0
 51
0.0
 7
MTC_FONT2
 72
1
 73
1
 0
LINE
 8
CAR_HATA
 6
CONTINUOUS
 62
7
 10
41261.7891949211
 20
16161.5871337901
 30
0.0
 11
43511.7891949211
 21
16161.5871337901
 31
0.0
 0
LINE
 8
CAR_HATA
 6
CONTINUOUS
 62
7
 10
41261.7891949211
 20
13721.5871337901
 30
0.0
 11
43511.7891949211
 21
13721.5871337901
 31
0.0
 0
LINE
 8
CAR_HATA
 6
CONTINUOUS
 62
7
 10
43511.7891949211
 20
13721.5871337901
 30
0.0
 11
43511.7891949211
 21
16161.5871337901
 31
0.0
 0
LINE
 8
CAR_HATA
 6
CONTINUOUS
 62
7
 10
43511.7891949211
 20
13721.5871337901
 30
0.0
 11
43280.8490872452
 21
14121.5871337901
 31
0.0
 0
LINE
 8
CAR_HATA
 6
CONTINUOUS
 62
7
 10
43511.7891949211
 20
13721.5871337901
 30
0.0
 11
43742.7293025969
 21
14121.5871337901
 31
0.0
 0
LINE
 8
CAR_HATA
 6
CONTINUOUS
 62
7
 10
43511.7891949211
 20
16161.5871337901
 30
0.0
 11
43280.8490872452
 21
15761.5871337901
 31
0.0
 0
LINE
 8
CAR_HATA
 6
CONTINUOUS
 62
7
 10
43511.7891949211
 20
16161.5871337901
 30
0.0
 11
43742.7293025969
 21
15761.5871337901
 31
0.0
 0
TEXT
 8
CAR_HATA
 62
7
 10
43455.7891949211
 20
14597.5871337901
 30
0
 11
43511.7891949211
 21
14941.5871337901
 31
0
 40
344.0
 1
2440
 41
0.5
 50
90.0
 51
0.0
 7
MTC_FONT2
 72
1
 73
1
 0
LINE
 8
CAR_HATA
 6
CONTINUOUS
 62
7
 10
40011.7891949211
 20
13721.5871337901
 30
0.0
 11
40011.7891949211
 21
12721.5871337901
 31
0.0
 0
LINE
 8
CAR_HATA
 6
CONTINUOUS
 62
7
 10
42511.7891949211
 20
13721.5871337901
 30
0.0
 11
42511.7891949211
 21
12721.5871337901
 31
0.0
 0
LINE
 8
CAR_HATA
 6
CONTINUOUS
 62
7
 10
40011.7891949211
 20
12721.5871337901
 30
0.0
 11
42511.7891949211
 21
12721.5871337901
 31
0.0
 0
LINE
 8
CAR_HATA
 6
CONTINUOUS
 62
7
 10
40011.7891949211
 20
12721.5871337901
 30
0.0
 11
40411.7891949211
 21
12952.527241466
 31
0.0
 0
LINE
 8
CAR_HATA
 6
CONTINUOUS
 62
7
 10
40011.7891949211
 20
12721.5871337901
 30
0.0
 11
40411.7891949211
 21
12490.6470261143
 31
0.0
 0
LINE
 8
CAR_HATA
 6
CONTINUOUS
 62
7
 10
42511.7891949211
 20
12721.5871337901
 30
0.0
 11
42111.7891949211
 21
12952.527241466
 31
0.0
 0
LINE
 8
CAR_HATA
 6
CONTINUOUS
 62
7
 10
42511.7891949211
 20
12721.5871337901
 30
0.0
 11
42111.7891949211
 21
12490.6470261143
 31
0.0
 0
TEXT
 8
CAR_HATA
 62
7
 10
40917.7891949211
 20
12777.5871337901
 30
0
 11
41261.7891949211
 21
12721.5871337901
 31
0
 40
344.0
 1
2500
 41
0.5
 50
0.0
 51
0.0
 7
MTC_FONT2
 72
1
 73
1
 0
LINE
 8
CAR_HATA
 6
CONTINUOUS
 62
7
 10
42134.7891949211
 20
20991.5871337901
 30
0.0
 11
35384.8928994214
 21
16161.5871337901
 31
0.0
 0
LINE
 8
CAR_HATA
 6
CONTINUOUS
 62
7
 10
42134.7891949211
 20
20991.5871337901
 30
0.0
 11
41943.8834361108
 21
20571.006196768
 31
0.0
 0
LINE
 8
CAR_HATA
 6
CONTINUOUS
 62
7
 10
42134.7891949211
 20
20991.5871337901
 30
0.0
 11
41675.1025397073
 21
20946.6259021375
 31
0.0
 0
TEXT
 8
CAR_HATA
 62
7
 10
35352.3049476142
 20
16207.1286027718
 30
0
 11
35384.8928994214
 21
16161.5871337901
 31
0
 40
344.0
 1
R=8300
 41
0.5
 50
35.5862420825301
 51
0.0
 7
MTC_FONT2
 72
0
 73
1
 0
ARC
 8
CAR_HATA
 6
CONTINUOUS
 62
7
 10
35384.8928994214
 20
16161.5871337901
 30
0.0
 40
8300.0
 50
30.5862420825301
 51
45.5862420825301
 0
LINE
 8
CAR_HATA
 6
CONTINUOUS
 62
7
 10
42671.3150786182
 20
10721.5871337901
 30
0.0
 11
37079.4285118878
 21
10721.5871337901
 31
0.0
 0
LINE
 8
CAR_HATA
 6
CONTINUOUS
 62
7
 10
42671.3150786182
 20
10721.5871337901
 30
0.0
 11
42271.3150786182
 21
10490.6470261143
 31
0.0
 0
LINE
 8
CAR_HATA
 6
CONTINUOUS
 62
7
 10
42671.3150786182
 20
10721.5871337901
 30
0.0
 11
42271.3150786182
 21
10952.527241466
 31
0.0
 0
LINE
 8
CAR_HATA
 6
CONTINUOUS
 62
7
 10
37079.4285118878
 20
10721.5871337901
 30
0.0
 11
37479.4285118878
 21
10490.6470261143
 31
0.0
 0
LINE
 8
CAR_HATA
 6
CONTINUOUS
 62
7
 10
37079.4285118878
 20
10721.5871337901
 30
0.0
 11
37479.4285118878
 21
10952.527241466
 31
0.0
 0
TEXT
 8
CAR_HATA
 62
7
 10
39531.371795253
 20
10777.5871337901
 30
0
 11
39875.371795253
 21
10721.5871337901
 31
0
 40
344.0
 1
5600
 41
0.5
 50
0.0
 51
0.0
 7
MTC_FONT2
 72
1
 73
1
 0
LINE
 8
CAR_HATA
 6
CONTINUOUS
 62
7
 10
14688.2108050789
 20
25917.4664071553
 30
0.0
 11
14688.2108050789
 21
31509.3529738857
 31
0.0
 0
LINE
 8
CAR_HATA
 6
CONTINUOUS
 62
7
 10
14688.2108050789
 20
25917.4664071553
 30
0.0
 11
14457.2706974031
 21
26317.4664071553
 31
0.0
 0
LINE
 8
CAR_HATA
 6
CONTINUOUS
 62
7
 10
14688.2108050789
 20
25917.4664071553
 30
0.0
 11
14919.1509127548
 21
26317.4664071553
 31
0.0
 0
LINE
 8
CAR_HATA
 6
CONTINUOUS
 62
7
 10
14688.2108050789
 20
31509.3529738857
 30
0.0
 11
14457.2706974031
 21
31109.3529738857
 31
0.0
 0
LINE
 8
CAR_HATA
 6
CONTINUOUS
 62
7
 10
14688.2108050789
 20
31509.3529738857
 30
0.0
 11
14919.1509127548
 21
31109.3529738857
 31
0.0
 0
TEXT
 8
CAR_HATA
 62
7
 10
14632.2108050789
 20
28369.4096905205
 30
0
 11
14688.2108050789
 21
28713.4096905205
 31
0
 40
344.0
 1
5600
 41
0.5
 50
90.0
 51
0.0
 7
MTC_FONT2
 72
1
 73
1
 0
POLYLINE
 8
TRACTOR
 6
CONTINUOUS
 62
1
 66
1
 10
0.0
 20
0.0
 30
0.0
 70
129
 0
VERTEX
 8
TRACTOR
 6
CONTINUOUS
 62
1
 10
40011.7891949211
 20
22191.5871337901
 30
0.0
 0
VERTEX
 8
TRACTOR
 6
CONTINUOUS
 62
1
 10
42511.7891949211
 20
22191.5871337901
 30
0.0
 0
VERTEX
 8
TRACTOR
 6
CONTINUOUS
 62
1
 10
42511.7891949211
 20
13721.5871337901
 30
0.0
 0
VERTEX
 8
TRACTOR
 6
CONTINUOUS
 62
1
 10
40011.7891949211
 20
13721.5871337901
 30
0.0
 0
SEQEND
 0
POLYLINE
 8
TRACTOR
 6
CONTINUOUS
 62
1
 66
1
 10
0.0
 20
0.0
 30
0.0
 70
129
 0
VERTEX
 8
TRACTOR
 6
CONTINUOUS
 62
1
 10
40011.7891949211
 20
23386.3591359374
 30
0.0
 0
VERTEX
 8
TRACTOR
 6
CONTINUOUS
 62
1
 10
42511.7891949211
 20
23386.3591359374
 30
0.0
 0
VERTEX
 8
TRACTOR
 6
CONTINUOUS
 62
1
 10
42511.7891949211
 20
14916.3591359374
 30
0.0
 0
VERTEX
 8
TRACTOR
 6
CONTINUOUS
 62
1
 10
40011.7891949211
 20
14916.3591359374
 30
0.0
 0
SEQEND
 0
POLYLINE
 8
TRACTOR
 6
CONTINUOUS
 62
1
 66
1
 10
0.0
 20
0.0
 30
0.0
 70
129
 0
VERTEX
 8
TRACTOR
 6
CONTINUOUS
 62
1
 10
39810.4203257444
 20
24929.1530082695
 30
0.0
 0
VERTEX
 8
TRACTOR
 6
CONTINUOUS
 62
1
 10
42309.2438148234
 20
25005.8417977176
 30
0.0
 0
VERTEX
 8
TRACTOR
 6
CONTINUOUS
 62
1
 10
42569.0654334735
 20
16539.8278167179
 30
0.0
 0
VERTEX
 8
TRACTOR
 6
CONTINUOUS
 62
1
 10
40070.2419443945
 20
16463.1390272698
 30
0.0
 0
SEQEND
 0
POLYLINE
 8
TRACTOR
 6
CONTINUOUS
 62
1
 66
1
 10
0.0
 20
0.0
 30
0.0
 70
129
 0
VERTEX
 8
TRACTOR
 6
CONTINUOUS
 62
1
 10
39231.1060181734
 20
26335.1297867281
 30
0.0
 0
VERTEX
 8
TRACTOR
 6
CONTINUOUS
 62
1
 10
41715.7436052634
 20
26611.8535855233
 30
0.0
 0
VERTEX
 8
TRACTOR
 6
CONTINUOUS
 62
1
 10
42653.2838355816
 20
18193.9014404624
 30
0.0
 0
VERTEX
 8
TRACTOR
 6
CONTINUOUS
 62
1
 10
40168.6462484916
 20
17917.1776416672
 30
0.0
 0
SEQEND
 0
POLYLINE
 8
TRACTOR
 6
CONTINUOUS
 62
1
 66
1
 10
0.0
 20
0.0
 30
0.0
 70
129
 0
VERTEX
 8
TRACTOR
 6
CONTINUOUS
 62
1
 10
38324.8939822355
 20
27547.9624755853
 30
0.0
 0
VERTEX
 8
TRACTOR
 6
CONTINUOUS
 62
1
 10
40761.2924997267
 20
28108.2858321986
 30
0.0
 0
VERTEX
 8
TRACTOR
 6
CONTINUOUS
 62
1
 10
42659.6680319324
 20
19853.7676549381
 30
0.0
 0
VERTEX
 8
TRACTOR
 6
CONTINUOUS
 62
1
 10
40223.2695144411
 20
19293.4442983249
 30
0.0
 0
SEQEND
 0
POLYLINE
 8
TRACTOR
 6
CONTINUOUS
 62
1
 66
1
 10
0.0
 20
0.0
 30
0.0
 70
129
 0
VERTEX
 8
TRACTOR
 6
CONTINUOUS
 62
1
 10
37152.1320111165
 20
28514.5109319424
 30
0.0
 0
VERTEX
 8
TRACTOR
 6
CONTINUOUS
 62
1
 10
39486.6249091817
 20
29409.0180078693
 30
0.0
 0
VERTEX
 8
TRACTOR
 6
CONTINUOUS
 62
1
 10
42517.214882422
 20
21499.7560692245
 30
0.0
 0
VERTEX
 8
TRACTOR
 6
CONTINUOUS
 62
1
 10
40182.7219843568
 20
20605.2489932976
 30
0.0
 0
SEQEND
 0
POLYLINE
 8
TRACTOR
 6
CONTINUOUS
 62
1
 66
1
 10
0.0
 20
0.0
 30
0.0
 70
129
 0
VERTEX
 8
TRACTOR
 6
CONTINUOUS
 62
1
 10
35780.3036224755
 20
29191.2050692649
 30
0.0
 0
VERTEX
 8
TRACTOR
 6
CONTINUOUS
 62
1
 10
37945.4616486145
 20
30441.0413472814
 30
0.0
 0
VERTEX
 8
TRACTOR
 6
CONTINUOUS
 62
1
 10
42179.9069585343
 20
23105.4859547227
 30
0.0
 0
VERTEX
 8
TRACTOR
 6
CONTINUOUS
 62
1
 10
40014.7489323953
 20
21855.6496767062
 30
0.0
 0
SEQEND
 0
POLYLINE
 8
TRACTOR
 6
CONTINUOUS
 62
1
 66
1
 10
0.0
 20
0.0
 30
0.0
 70
129
 0
VERTEX
 8
TRACTOR
 6
CONTINUOUS
 62
1
 10
34282.0249512126
 20
29547.5324782202
 30
0.0
 0
VERTEX
 8
TRACTOR
 6
CONTINUOUS
 62
1
 10
36203.7055539972
 20
31146.6396231237
 30
0.0
 0
VERTEX
 8
TRACTOR
 6
CONTINUOUS
 62
1
 10
41621.4805609302
 20
24635.9857408894
 30
0.0
 0
VERTEX
 8
TRACTOR
 6
CONTINUOUS
 62
1
 10
39699.7999581456
 20
23036.8785959859
 30
0.0
 0
SEQEND
 0
POLYLINE
 8
TRACTOR
 6
CONTINUOUS
 62
1
 66
1
 10
0.0
 20
0.0
 30
0.0
 70
129
 0
VERTEX
 8
TRACTOR
 6
CONTINUOUS
 62
1
 10
32732.6346383315
 20
29567.8148508717
 30
0.0
 0
VERTEX
 8
TRACTOR
 6
CONTINUOUS
 62
1
 10
34336.9725760091
 20
31485.130626045
 30
0.0
 0
VERTEX
 8
TRACTOR
 6
CONTINUOUS
 62
1
 10
40832.8384222962
 20
26049.6336931932
 30
0.0
 0
VERTEX
 8
TRACTOR
 6
CONTINUOUS
 62
1
 10
39228.5004846186
 20
24132.3179180199
 30
0.0
 0
SEQEND
 0
POLYLINE
 8
TRACTOR
 6
CONTINUOUS
 62
1
 66
1
 10
0.0
 20
0.0
 30
0.0
 70
129
 0
VERTEX
 8
TRACTOR
 6
CONTINUOUS
 62
1
 10
31202.7270164871
 20
29304.2391563808
 30
0.0
 0
VERTEX
 8
TRACTOR
 6
CONTINUOUS
 62
1
 10
32437.2763293849
 20
31478.1499167442
 30
0.0
 0
VERTEX
 8
TRACTOR
 6
CONTINUOUS
 62
1
 10
39802.485985496
 20
27295.4968446466
 30
0.0
 0
VERTEX
 8
TRACTOR
 6
CONTINUOUS
 62
1
 10
38567.9366725982
 20
25121.5860842832
 30
0.0
 0
SEQEND
 0
POLYLINE
 8
TRACTOR
 6
CONTINUOUS
 62
1
 66
1
 10
0.0
 20
0.0
 30
0.0
 70
129
 0
VERTEX
 8
TRACTOR
 6
CONTINUOUS
 62
1
 10
29695.7707866422
 20
29075.5016461983
 30
0.0
 0
VERTEX
 8
TRACTOR
 6
CONTINUOUS
 62
1
 10
30612.1882134796
 20
31401.4808163089
 30
0.0
 0
VERTEX
 8
TRACTOR
 6
CONTINUOUS
 62
1
 10
38492.6056418145
 20
28296.6585741836
 30
0.0
 0
VERTEX
 8
TRACTOR
 6
CONTINUOUS
 62
1
 10
37576.1882149771
 20
25970.679404073
 30
0.0
 0
SEQEND
 0
POLYLINE
 8
TRACTOR
 6
CONTINUOUS
 62
1
 66
1
 10
0.0
 20
0.0
 30
0.0
 70
129
 0
VERTEX
 8
TRACTOR
 6
CONTINUOUS
 62
1
 10
28186.2815515615
 20
28915.9979081793
 30
0.0
 0
VERTEX
 8
TRACTOR
 6
CONTINUOUS
 62
1
 10
28856.3795678932
 20
31324.5179202424
 30
0.0
 0
VERTEX
 8
TRACTOR
 6
CONTINUOUS
 62
1
 10
37016.4453687629
 20
29054.2258409105
 30
0.0
 0
VERTEX
 8
TRACTOR
 6
CONTINUOUS
 62
1
 10
36346.3473524312
 20
26645.7058288474
 30
0.0
 0
SEQEND
 0
POLYLINE
 8
TRACTOR
 6
CONTINUOUS
 62
1
 66
1
 10
0.0
 20
0.0
 30
0.0
 70
129
 0
VERTEX
 8
TRACTOR
 6
CONTINUOUS
 62
1
 10
26664.2667634513
 20
28805.7626214031
 30
0.0
 0
VERTEX
 8
TRACTOR
 6
CONTINUOUS
 62
1
 10
27150.3093849128
 20
31258.0600279431
 30
0.0
 0
VERTEX
 8
TRACTOR
 6
CONTINUOUS
 62
1
 10
35458.6929982703
 20
29611.3476264315
 30
0.0
 0
VERTEX
 8
TRACTOR
 6
CONTINUOUS
 62
1
 10
34972.6503768088
 20
27159.0502198915
 30
0.0
 0
SEQEND
 0
POLYLINE
 8
TRACTOR
 6
CONTINUOUS
 62
1
 66
1
 10
0.0
 20
0.0
 30
0.0
 70
129
 0
VERTEX
 8
TRACTOR
 6
CONTINUOUS
 62
1
 10
25127.7289294924
 20
28729.4961712143
 30
0.0
 0
VERTEX
 8
TRACTOR
 6
CONTINUOUS
 62
1
 10
25478.7722853224
 20
31204.7271831256
 30
0.0
 0
VERTEX
 8
TRACTOR
 6
CONTINUOUS
 62
1
 10
33864.854953678
 20
30015.3922935738
 30
0.0
 0
VERTEX
 8
TRACTOR
 6
CONTINUOUS
 62
1
 10
33513.8115978481
 20
27540.1612816625
 30
0.0
 0
SEQEND
 0
POLYLINE
 8
TRACTOR
 6
CONTINUOUS
 62
1
 66
1
 10
0.0
 20
0.0
 30
0.0
 70
129
 0
VERTEX
 8
TRACTOR
 6
CONTINUOUS
 62
1
 10
23578.0031332283
 20
28676.4561225082
 30
0.0
 0
VERTEX
 8
TRACTOR
 6
CONTINUOUS
 62
1
 10
23830.9803080736
 20
31163.6236980864
 30
0.0
 0
VERTEX
 8
TRACTOR
 6
CONTINUOUS
 62
1
 10
32257.5040541323
 20
30306.5370297107
 30
0.0
 0
VERTEX
 8
TRACTOR
 6
CONTINUOUS
 62
1
 10
32004.5268792871
 20
27819.3694541325
 30
0.0
 0
SEQEND
 0
POLYLINE
 8
TRACTOR
 6
CONTINUOUS
 62
1
 66
1
 10
0.0
 20
0.0
 30
0.0
 70
129
 0
VERTEX
 8
TRACTOR
 6
CONTINUOUS
 62
1
 10
22017.4423785683
 20
28639.3371793115
 30
0.0
 0
VERTEX
 8
TRACTOR
 6
CONTINUOUS
 62
1
 10
22199.5382388786
 20
31132.6965793295
 30
0.0
 0
VERTEX
 8
TRACTOR
 6
CONTINUOUS
 62
1
 10
30647.0398861394
 20
30515.7558045984
 30
0.0
 0
VERTEX
 8
TRACTOR
 6
CONTINUOUS
 62
1
 10
30464.9440258291
 20
28022.3964045805
 30
0.0
 0
SEQEND
 0
POLYLINE
 8
TRACTOR
 6
CONTINUOUS
 62
1
 66
1
 10
0.0
 20
0.0
 30
0.0
 70
129
 0
VERTEX
 8
TRACTOR
 6
CONTINUOUS
 62
1
 10
20448.4238748674
 20
28613.2062248498
 30
0.0
 0
VERTEX
 8
TRACTOR
 6
CONTINUOUS
 62
1
 10
20579.4200799125
 20
31109.7718647367
 30
0.0
 0
VERTEX
 8
TRACTOR
 6
CONTINUOUS
 62
1
 10
29037.7844678492
 20
30665.956722044
 30
0.0
 0
VERTEX
 8
TRACTOR
 6
CONTINUOUS
 62
1
 10
28906.7882628042
 20
28169.3910821572
 30
0.0
 0
SEQEND
 0
POLYLINE
 8
TRACTOR
 6
CONTINUOUS
 62
1
 66
1
 10
0.0
 20
0.0
 30
0.0
 70
129
 0
VERTEX
 8
TRACTOR
 6
CONTINUOUS
 62
1
 10
18872.9929928403
 20
28594.7179901498
 30
0.0
 0
VERTEX
 8
TRACTOR
 6
CONTINUOUS
 62
1
 10
18967.1998978424
 20
31092.9423713954
 30
0.0
 0
VERTEX
 8
TRACTOR
 6
CONTINUOUS
 62
1
 10
27431.1841015025
 20
30773.7693772482
 30
0.0
 0
VERTEX
 8
TRACTOR
 6
CONTINUOUS
 62
1
 10
27336.9771965004
 20
28275.5449960026
 30
0.0
 0
SEQEND
 0
POLYLINE
 8
TRACTOR
 6
CONTINUOUS
 62
1
 66
1
 10
0.0
 20
0.0
 30
0.0
 70
129
 0
VERTEX
 8
TRACTOR
 6
CONTINUOUS
 62
1
 10
17688.2108050789
 20
28584.4618242563
 30
0.0
 0
VERTEX
 8
TRACTOR
 6
CONTINUOUS
 62
1
 10
17761.7726917175
 20
31083.3793196599
 30
0.0
 0
VERTEX
 8
TRACTOR
 6
CONTINUOUS
 62
1
 10
26228.1051661449
 20
30834.1516477283
 30
0.0
 0
VERTEX
 8
TRACTOR
 6
CONTINUOUS
 62
1
 10
26154.5432795063
 20
28335.2341523247
 30
0.0
 0
SEQEND
 0
LINE
 8
FUKUIN
 6
CONTINUOUS
 62
7
 10
42671.3150786182
 20
10721.5871337901
 30
0.0
 11
42671.3150786182
 21
31509.3529738857
 31
0.0
 0
LINE
 8
FUKUIN
 6
CONTINUOUS
 62
7
 10
37079.4285118878
 20
10721.5871337901
 30
0.0
 11
37079.4285118878
 21
25917.4664071553
 31
0.0
 0
LINE
 8
FUKUIN
 6
CONTINUOUS
 62
7
 10
42671.3150786182
 20
31509.3529738857
 30
0.0
 11
14688.2108050789
 21
31509.3529738857
 31
0.0
 0
LINE
 8
FUKUIN
 6
CONTINUOUS
 62
7
 10
37079.4285118878
 20
25917.4664071553
 30
0.0
 11
14688.2108050789
 21
25917.4664071553
 31
0.0
 0
ENDSEC
 0
EOF
