  0
SECTION
  2
HEADER
  9
$ACADVER
  1
AC1009
  9
$INSBASE
 10
0
 20
0
 30
0
  9
$EXTMIN
 10
0
 20
0
  9
$EXTMAX
 10
59400
 20
42000
  9
$LIMMIN
 10
0
 20
0
  9
$LIMMAX
 10
59400
 20
42000
  9
$LTSCALE
 40
200
  0
ENDSEC
  0
SECTION
  2
TABLES
  0
TABLE
  2
LTYPE
 70
     9
  0
LTYPE
  2
CONTINUOUS
 70
    64
  3
実線
 72
    65
 73
     0
 40
0.0
  0
LTYPE
  2
DASHED1
 70
    64
  3
--  --  --  --  --  --  --  --  
 72
    65
 73
     2
 40
2.5
 49
1.25
 49
-1.25
  0
LTYPE
  2
DASHED2
 70
    64
  3
----    ----    ----    ----    
 72
    65
 73
     2
 40
5.0
 49
2.5
 49
-2.5
  0
LTYPE
  2
DASHED3
 70
    64
  3
------  ------  ------  ------  
 72
    65
 73
     2
 40
5.0
 49
3.75
 49
-1.25
  0
LTYPE
  2
CENTER1
 70
    64
  3
----- - ----- - ----- - ----- - 
 72
    65
 73
     4
 40
10.0
 49
6.25
 49
-1.25
 49
1.25
 49
-1.25
  0
LTYPE
  2
CENTER2
 70
    64
  3
----------  --  ----------  --  
 72
    65
 73
     4
 40
20.0
 49
12.5
 49
-2.5
 49
2.5
 49
-2.5
  0
LTYPE
  2
PHANTOM1
 70
    64
  3
--- - - --- - - --- - - --- - - 
 72
    65
 73
     6
 40
10.0
 49
3.25
 49
-1.25
 49
1.25
 49
-1.25
 49
1.25
 49
-1.25
  0
LTYPE
  2
PHANTOM2
 70
    64
  3
--------  -  -  --------  -  -  
 72
    65
 73
     6
 40
20.0
 49
10.0
 49
-2.5
 49
1.25
 49
-2.5
 49
1.25
 49
-2.5
  0
LTYPE
  2
DOT
 70
    64
  3
-   -   -   -   -   -   -   -   
 72
    65
 73
     2
 40
2.5
 49
0.625
 49
-1.875
  0
LTYPE
  2
DUMMY
 70
    64
  3
ダミー
 72
    65
 73
     0
 40
0.0
  0
LTYPE
  2
RAND1
 70
    64
  3
ランダム線1
 72
    65
 73
     4
 40
10.0
 49
1.0
 49
-2.0
 49
3.0
 49
-4.0
  0
LTYPE
  2
RAND2
 70
    64
  3
ランダム線2
 72
    65
 73
     4
 40
14.0
 49
2.0
 49
-3.0
 49
4.0
 49
-5.0
  0
LTYPE
  2
RAND3
 70
    64
  3
ランダム線3
 72
    65
 73
     4
 40
18.0
 49
3.0
 49
-4.0
 49
5.0
 49
-6.0
  0
LTYPE
  2
RAND4
 70
    64
  3
ランダム線4
 72
    65
 73
     4
 40
22.0
 49
4.0
 49
-5.0
 49
6.0
 49
-7.0
  0
LTYPE
  2
RAND5
 70
    64
  3
ランダム線5
 72
    65
 73
     4
 40
26.0
 49
5.0
 49
-6.0
 49
7.0
 49
-8.0
  0
LTYPE
  2
LONG1
 70
    64
  3
----------  --  ----------  --  
 72
    65
 73
     4
 40
40.0
 49
32.5
 49
-2.5
 49
2.5
 49
-2.5
  0
LTYPE
  2
LONG2
 70
    64
  3
--------  -  -  --------  -  -  
 72
    65
 73
     6
 40
40.0
 49
30.0
 49
-2.5
 49
1.25
 49
-2.5
 49
1.25
 49
-2.5
  0
LTYPE
  2
LONG3
 70
    64
  3
+++++++++++++++..+++++++++++++++
 72
    65
 73
     2
 40
40.0
 49
37.5
 49
-2.5
  0
LTYPE
  2
LONG4
 70
    64
  3
+++++++++++++++..+++++++++++++++
 72
    65
 73
     2
 40
80.0
 49
75.0
 49
-5.0
  0
LTYPE
  2
LONG5
 70
    64
  3
----------  --  ----------  --  
 72
    65
 73
     4
 40
60.0
 49
37.5
 49
-7.5
 49
7.5
 49
-7.5
  0
LTYPE
  2
dashed
 70
   64
  3
-------   -------------   ------
 72
   65
 73
    2
 40
7.5
 49
6
 49
-1.5
  0
LTYPE
  2
dashed_spaced
 70
   64
  3
----        --------        ----
 72
   65
 73
    2
 40
12
 49
6
 49
-6
  0
LTYPE
  2
long_dashed_dotted
 70
   64
  3
------------- --- --------------
 72
   65
 73
    4
 40
15.25
 49
12
 49
-1.5
 49
0.25
 49
-1.5
  0
LTYPE
  2
long_dashed_double-dotted
 70
   64
  3
----------- --- --- ------------
 72
   65
 73
    6
 40
17
 49
12
 49
-1.5
 49
0.25
 49
-1.5
 49
0.25
 49
-1.5
  0
LTYPE
  2
long_dashed_triplicate-dotted
 70
   64
  3
--------- --- --- --- ----------
 72
   65
 73
    8
 40
18.75
 49
12
 49
-1.5
 49
0.25
 49
-1.5
 49
0.25
 49
-1.5
 49
0.25
 49
-1.5
  0
LTYPE
  2
dotted
 70
   64
  3
   -       -       -       -    
 72
   65
 73
    2
 40
1.75
 49
0.25
 49
-1.5
  0
LTYPE
  2
chain
 70
   64
  3
-------------- -- --------------
 72
   65
 73
    4
 40
18.5
 49
12
 49
-1.5
 49
3.5
 49
-1.5
  0
LTYPE
  2
chain_double_dash
 70
   64
  3
------------ -- -- -------------
 72
   65
 73
    6
 40
23.5
 49
12
 49
-1.5
 49
3.5
 49
-1.5
 49
3.5
 49
-1.5
  0
LTYPE
  2
dashed_dotted
 70
   64
  3
-----------     -     ----------
 72
   65
 73
    4
 40
9.25
 49
6
 49
-1.5
 49
0.25
 49
-1.5
  0
LTYPE
  2
double-dashed_dotted
 70
   64
  3
------   -----------   -   -----
 72
   65
 73
    6
 40
16.75
 49
6
 49
-1.5
 49
6
 49
-1.5
 49
0.25
 49
-1.5
  0
LTYPE
  2
dashed_double-dotted
 70
   64
  3
---------    -    -    ---------
 72
   65
 73
    6
 40
11
 49
6
 49
-1.5
 49
0.25
 49
-1.5
 49
0.25
 49
-1.5
  0
LTYPE
  2
double-dashed_double-dotted
 70
   64
  3
-----   ---------   -   -   ----
 72
   65
 73
    8
 40
18.5
 49
6
 49
-1.5
 49
6
 49
-1.5
 49
0.25
 49
-1.5
 49
0.25
 49
-1.5
  0
LTYPE
  2
dashed_triplicate-dotted
 70
   64
  3
-------    -    -    -    ------
 72
   65
 73
    8
 40
12.75
 49
6
 49
-1.5
 49
0.25
 49
-1.5
 49
0.25
 49
-1.5
 49
0.25
 49
-1.5
  0
LTYPE
  2
double-dashed_triplicate-dotted
 70
   64
  3
-----  ---------  -  -  -  -----
 72
   65
 73
   10
 40
20.25
 49
6
 49
-1.5
 49
6
 49
-1.5
 49
0.25
 49
-1.5
 49
0.25
 49
-1.5
 49
0.25
 49
-1.5
  0
LTYPE
  2
undefined
 70
   64
  3
--------------------------------
 72
   65
 73
    0
 40
0
  0
LTYPE
  2
DASH
 70
   64
  3
-------   -------------   ------
 72
   65
 73
    2
 40
7500
 49
6000
 49
-1500
  0
LTYPE
  2
DASHDOT
 70
   64
  3
----------   ------   ----------
 72
   65
 73
    4
 40
18500
 49
12000
 49
-1500
 49
3500
 49
-1500
  0
LTYPE
  2
DASHDOTDOT
 70
   64
  3
--------  -----  -----  --------
 72
   65
 73
    6
 40
23500
 49
12000
 49
-1500
 49
3500
 49
-1500
 49
3500
 49
-1500
  0
LTYPE
  2
DOT_20
 70
   64
  3
-              --              -
 72
   65
 73
    2
 40
1750
 49
250
 49
-1500
  0
LTYPE
  2
DASHED1_21
 70
   64
  3
----        --------        ----
 72
   65
 73
    2
 40
5000
 49
2500
 49
-2500
  0
LTYPE
  2
DASHED2_22
 70
   64
  3
----        --------        ----
 72
   65
 73
    2
 40
2500
 49
1250
 49
-1250
  0
LTYPE
  2
CENTER1_23
 70
   64
  3
----------    ----    ----------
 72
   65
 73
    4
 40
10000
 49
6250
 49
-1250
 49
1250
 49
-1250
  0
LTYPE
  2
CENTER2_24
 70
   64
  3
------    ----    ----    ------
 72
   65
 73
    6
 40
9500
 49
3250
 49
-1250
 49
1250
 49
-1250
 49
1250
 49
-1250
  0
LTYPE
  2
_
 70
   64
  3
                                
 72
   65
 73
    0
 40
0
  0
LTYPE
  2
__26
 70
   64
  3
                                
 72
   65
 73
    0
 40
0
  0
LTYPE
  2
__27
 70
   64
  3
                                
 72
   65
 73
    0
 40
0
  0
LTYPE
  2
__28
 70
   64
  3
                                
 72
   65
 73
    0
 40
0
  0
LTYPE
  2
__29
 70
   64
  3
                                
 72
   65
 73
    0
 40
0
  0
LTYPE
  2
__30
 70
   64
  3
                                
 72
   65
 73
    0
 40
0
  0
LTYPE
  2
__31
 70
   64
  3
                                
 72
   65
 73
    0
 40
0
  0
LTYPE
  2
__32
 70
   64
  3
                                
 72
   65
 73
    0
 40
0
  0
ENDTAB
  0
TABLE
  2
STYLE
  5
3
100
AcDbSymbolTable
 70
     1
  0
STYLE
  5
10
100
AcDbSymbolTableRecord
100
AcDbTextStyleTableRecord
  2
STANDARD
 70
     0
 40
0.0
 41
1.0
 50
0.0
 71
     0
 42
0.2
  3
txt
  4
bigfont.shx
  0
STYLE
  5
26
100
AcDbSymbolTableRecord
100
AcDbTextStyleTableRecord
  2
TATEGAKI
 70
    68
 40
0.0
 41
1.0
 50
0.0
 71
     0
 42
1.0
  3
txt
  4
bigfont.shx
  0
ENDTAB
  0
TABLE
  2
LAYER
 70
    7
  0
LAYER
  2
_0-2_FUKUIN
 70
   64
 62
    7
  6
CONTINUOUS
  0
LAYER
  2
_0-3_TRACTOR
 70
   64
 62
    7
  6
CONTINUOUS
  0
LAYER
  2
_0-4_CAR_HATA
 70
   64
 62
    7
  6
CONTINUOUS
  0
LAYER
  2
_0-6_ROOT
 70
   64
 62
    7
  6
CONTINUOUS
  0
LAYER
  2
_0-7_HANKEI
 70
   64
 62
    7
  6
CONTINUOUS
  0
LAYER
  2
_0-8_HYOU
 70
   64
 62
    7
  6
CONTINUOUS
  0
LAYER
  2
ADD_LINE
 70
   64
 62
    7
  6
CONTINUOUS
  0
ENDTAB
  0
ENDSEC
  0
SECTION
  2
BLOCKS
  0
ENDSEC
  0
SECTION
  2
ENTITIES
  0
ARC
  8
_0-6_ROOT
  6
CONTINUOUS
 62
    7
 10
26386.935234090699
 20
23037.7475608817
 40
9303.8724788935597
 50
90
 51
180
  0
LINE
  8
_0-6_ROOT
  6
CONTINUOUS
 62
    7
 10
26386.935234090699
 20
32341.620039775295
 11
41386.935234090699
 21
32341.620039775295
  0
LINE
  8
_0-7_HANKEI
  6
CONTINUOUS
 62
    7
 10
26386.935234090699
 20
23037.7475608817
 11
26386.935234090699
 21
32341.620039775295
  0
LINE
  8
_0-7_HANKEI
  6
CONTINUOUS
 62
    7
 10
26386.935234090699
 20
23037.7475608817
 11
17083.062755197199
 21
23037.7475608817
  0
TEXT
  8
_0-7_HANKEI
 62
    7
 10
20702.998994643902
 20
23121.7475608817
 40
516
 41
0.5
 50
0.0000000000000197
  1
R=10.000
  0
TEXT
  8
_0-7_HANKEI
 62
    7
 10
20109.5989946439
 20
22521.7475608817
 40
516
 41
0.5
 50
0.0000000000000105
  1
R=9.304(計算値)
  0
LINE
  8
_0-4_CAR_HATA
  6
CONTINUOUS
 62
    7
 10
17083.062755197199
 20
23037.7475608817
 11
13833.062755197199
 21
23037.7475608817
  0
LINE
  8
_0-4_CAR_HATA
  6
CONTINUOUS
 62
    7
 10
17083.062755197199
 20
11042.7475608817
 11
13833.062755197199
 21
11042.7475608817
  0
LINE
  8
_0-4_CAR_HATA
  6
CONTINUOUS
 62
    7
 10
13833.062755197199
 20
11042.7475608817
 11
13833.062755197199
 21
23037.7475608817
  0
LINE
  8
_0-4_CAR_HATA
  6
CONTINUOUS
 62
    7
 10
13833.062755197199
 20
11042.7475608817
 11
13602.122647521301
 21
11442.7475608817
  0
LINE
  8
_0-4_CAR_HATA
  6
CONTINUOUS
 62
    7
 10
13833.062755197199
 20
11042.7475608817
 11
14064.002862873
 21
11442.7475608817
  0
LINE
  8
_0-4_CAR_HATA
  6
CONTINUOUS
 62
    7
 10
13833.062755197199
 20
23037.7475608817
 11
13602.122647521301
 21
22637.7475608817
  0
LINE
  8
_0-4_CAR_HATA
  6
CONTINUOUS
 62
    7
 10
13833.062755197199
 20
23037.7475608817
 11
14064.002862873
 21
22637.7475608817
  0
TEXT
  8
_0-4_CAR_HATA
 62
    7
 10
13777.062755197199
 20
16610.2475608817
 40
344
 41
0.5
 50
90
  1
11995
  0
LINE
  8
_0-4_CAR_HATA
  6
CONTINUOUS
 62
    7
 10
17083.062755197199
 20
23037.7475608817
 11
14833.062755197199
 21
23037.7475608817
  0
LINE
  8
_0-4_CAR_HATA
  6
CONTINUOUS
 62
    7
 10
17083.062755197199
 20
21637.7475608817
 11
14833.062755197199
 21
21637.7475608817
  0
LINE
  8
_0-4_CAR_HATA
  6
CONTINUOUS
 62
    7
 10
14833.062755197199
 20
21637.7475608817
 11
14833.062755197199
 21
23037.7475608817
  0
LINE
  8
_0-4_CAR_HATA
  6
CONTINUOUS
 62
    7
 10
14833.062755197199
 20
21637.7475608817
 11
14602.122647521301
 21
22037.7475608817
  0
LINE
  8
_0-4_CAR_HATA
  6
CONTINUOUS
 62
    7
 10
14833.062755197199
 20
21637.7475608817
 11
15064.002862873
 21
22037.7475608817
  0
LINE
  8
_0-4_CAR_HATA
  6
CONTINUOUS
 62
    7
 10
14833.062755197199
 20
23037.7475608817
 11
14602.122647521301
 21
22637.7475608817
  0
LINE
  8
_0-4_CAR_HATA
  6
CONTINUOUS
 62
    7
 10
14833.062755197199
 20
23037.7475608817
 11
15064.002862873
 21
22637.7475608817
  0
TEXT
  8
_0-4_CAR_HATA
 62
    7
 10
14777.062755197199
 20
21993.7475608817
 40
344
 41
0.5
 50
90
  1
1400
  0
LINE
  8
_0-4_CAR_HATA
  6
CONTINUOUS
 62
    7
 10
17083.062755197199
 20
21637.7475608817
 11
14833.062755197199
 21
21637.7475608817
  0
LINE
  8
_0-4_CAR_HATA
  6
CONTINUOUS
 62
    7
 10
17083.062755197199
 20
15077.747560881702
 11
14833.062755197199
 21
15077.747560881702
  0
LINE
  8
_0-4_CAR_HATA
  6
CONTINUOUS
 62
    7
 10
14833.062755197199
 20
15077.747560881702
 11
14833.062755197199
 21
21637.7475608817
  0
LINE
  8
_0-4_CAR_HATA
  6
CONTINUOUS
 62
    7
 10
14833.062755197199
 20
15077.747560881702
 11
14602.122647521301
 21
15477.747560881702
  0
LINE
  8
_0-4_CAR_HATA
  6
CONTINUOUS
 62
    7
 10
14833.062755197199
 20
15077.747560881702
 11
15064.002862873
 21
15477.747560881702
  0
LINE
  8
_0-4_CAR_HATA
  6
CONTINUOUS
 62
    7
 10
14833.062755197199
 20
21637.7475608817
 11
14602.122647521301
 21
21237.7475608817
  0
LINE
  8
_0-4_CAR_HATA
  6
CONTINUOUS
 62
    7
 10
14833.062755197199
 20
21637.7475608817
 11
15064.002862873
 21
21237.7475608817
  0
TEXT
  8
_0-4_CAR_HATA
 62
    7
 10
14777.062755197199
 20
18013.7475608817
 40
344
 41
0.5
 50
90
  1
6560
  0
LINE
  8
_0-4_CAR_HATA
  6
CONTINUOUS
 62
    7
 10
17083.062755197199
 20
15077.747560881702
 11
14833.062755197199
 21
15077.747560881702
  0
LINE
  8
_0-4_CAR_HATA
  6
CONTINUOUS
 62
    7
 10
17083.062755197199
 20
11042.7475608817
 11
14833.062755197199
 21
11042.7475608817
  0
LINE
  8
_0-4_CAR_HATA
  6
CONTINUOUS
 62
    7
 10
14833.062755197199
 20
11042.7475608817
 11
14833.062755197199
 21
15077.747560881702
  0
LINE
  8
_0-4_CAR_HATA
  6
CONTINUOUS
 62
    7
 10
14833.062755197199
 20
11042.7475608817
 11
14602.122647521301
 21
11442.7475608817
  0
LINE
  8
_0-4_CAR_HATA
  6
CONTINUOUS
 62
    7
 10
14833.062755197199
 20
11042.7475608817
 11
15064.002862873
 21
11442.7475608817
  0
LINE
  8
_0-4_CAR_HATA
  6
CONTINUOUS
 62
    7
 10
14833.062755197199
 20
15077.747560881702
 11
14602.122647521301
 21
14677.747560881702
  0
LINE
  8
_0-4_CAR_HATA
  6
CONTINUOUS
 62
    7
 10
14833.062755197199
 20
15077.747560881702
 11
15064.002862873
 21
14677.747560881702
  0
TEXT
  8
_0-4_CAR_HATA
 62
    7
 10
14777.062755197199
 20
12716.2475608817
 40
344
 41
0.5
 50
90
  1
4035
  0
LINE
  8
_0-4_CAR_HATA
  6
CONTINUOUS
 62
    7
 10
15833.062755197199
 20
11042.7475608817
 11
15833.062755197199
 21
10042.7475608817
  0
LINE
  8
_0-4_CAR_HATA
  6
CONTINUOUS
 62
    7
 10
18333.062755197199
 20
11042.7475608817
 11
18333.062755197199
 21
10042.7475608817
  0
LINE
  8
_0-4_CAR_HATA
  6
CONTINUOUS
 62
    7
 10
15833.062755197199
 20
10042.7475608817
 11
18333.062755197199
 21
10042.7475608817
  0
LINE
  8
_0-4_CAR_HATA
  6
CONTINUOUS
 62
    7
 10
15833.062755197199
 20
10042.7475608817
 11
16233.062755197199
 21
10273.687668557501
  0
LINE
  8
_0-4_CAR_HATA
  6
CONTINUOUS
 62
    7
 10
15833.062755197199
 20
10042.7475608817
 11
16233.062755197199
 21
9811.8074532058399
  0
LINE
  8
_0-4_CAR_HATA
  6
CONTINUOUS
 62
    7
 10
18333.062755197199
 20
10042.7475608817
 11
17933.062755197199
 21
10273.687668557501
  0
LINE
  8
_0-4_CAR_HATA
  6
CONTINUOUS
 62
    7
 10
18333.062755197199
 20
10042.7475608817
 11
17933.062755197199
 21
9811.8074532058399
  0
TEXT
  8
_0-4_CAR_HATA
 62
    7
 10
16739.062755197199
 20
10098.7475608817
 40
344
 41
0.5
 50
0
  1
2500
  0
LINE
  8
_0-4_CAR_HATA
  6
CONTINUOUS
 62
    7
 10
16133.062755197199
 20
21637.7475608817
 11
23680.671648085001
 21
15077.747560881702
  0
LINE
  8
_0-4_CAR_HATA
  6
CONTINUOUS
 62
    7
 10
16133.062755197199
 20
21637.7475608817
 11
16586.463821548001
 21
21549.652121923598
  0
LINE
  8
_0-4_CAR_HATA
  6
CONTINUOUS
 62
    7
 10
16133.062755197199
 20
21637.7475608817
 11
16283.470400277301
 21
21201.042999839799
  0
TEXT
  8
_0-4_CAR_HATA
 62
    7
 10
22808.675537381299
 20
15909.8381706819
 40
344
 41
0.5
 50
-40.995518809951065
  1
R=10000
  0
ARC
  8
_0-4_CAR_HATA
  6
CONTINUOUS
 62
    7
 10
23680.671648085001
 20
15077.747560881702
 40
10000
 50
129.00448119004901
 51
144.00448119004801
  0
LINE
  8
_0-4_CAR_HATA
  6
CONTINUOUS
 62
    7
 10
15415.2812095562
 20
8042.7475608816903
 11
22116.606155821901
 21
8042.7475608816903
  0
LINE
  8
_0-4_CAR_HATA
  6
CONTINUOUS
 62
    7
 10
15415.2812095562
 20
8042.7475608816903
 11
15815.2812095562
 21
8273.6876685575407
  0
LINE
  8
_0-4_CAR_HATA
  6
CONTINUOUS
 62
    7
 10
15415.2812095562
 20
8042.7475608816903
 11
15815.2812095562
 21
7811.807453205839
  0
LINE
  8
_0-4_CAR_HATA
  6
CONTINUOUS
 62
    7
 10
22116.606155821901
 20
8042.7475608816903
 11
21716.606155821901
 21
8273.6876685575407
  0
LINE
  8
_0-4_CAR_HATA
  6
CONTINUOUS
 62
    7
 10
22116.606155821901
 20
8042.7475608816903
 11
21716.606155821901
 21
7811.807453205839
  0
TEXT
  8
_0-4_CAR_HATA
 62
    7
 10
18421.9436826891
 20
8098.7475608816912
 40
344
 41
0.5
 50
0
  1
6800
  0
LINE
  8
_0-4_CAR_HATA
  6
CONTINUOUS
 62
    7
 10
45366.937244802801
 20
27486.867600528501
 11
45366.937244802801
 21
34188.192546794198
  0
LINE
  8
_0-4_CAR_HATA
  6
CONTINUOUS
 62
    7
 10
45366.937244802801
 20
27486.867600528501
 11
45135.997137127
 21
27886.867600528501
  0
LINE
  8
_0-4_CAR_HATA
  6
CONTINUOUS
 62
    7
 10
45366.937244802801
 20
27486.867600528501
 11
45597.877352478703
 21
27886.867600528501
  0
LINE
  8
_0-4_CAR_HATA
  6
CONTINUOUS
 62
    7
 10
45366.937244802801
 20
34188.192546794198
 11
45135.997137127
 21
33788.192546794198
  0
LINE
  8
_0-4_CAR_HATA
  6
CONTINUOUS
 62
    7
 10
45366.937244802801
 20
34188.192546794198
 11
45597.877352478703
 21
33788.192546794198
  0
TEXT
  8
_0-4_CAR_HATA
 62
    7
 10
45310.937244802801
 20
30493.530073661299
 40
344
 41
0.5
 50
90
  1
6800
  0
LINE
  8
_0-3_TRACTOR
  6
CONTINUOUS
 62
    1
 10
15833.062755197199
 20
23037.7475608817
 11
18333.062755197199
 21
23037.7475608817
  0
LINE
  8
_0-3_TRACTOR
  6
CONTINUOUS
 62
    1
 10
18333.062755197199
 20
23037.7475608817
 11
18333.062755197199
 21
11042.7475608817
  0
LINE
  8
_0-3_TRACTOR
  6
CONTINUOUS
 62
    1
 10
18333.062755197199
 20
11042.7475608817
 11
15833.062755197199
 21
11042.7475608817
  0
LINE
  8
_0-3_TRACTOR
  6
CONTINUOUS
 62
    1
 10
15833.062755197199
 20
11042.7475608817
 11
15833.062755197199
 21
23037.7475608817
  0
LINE
  8
_0-3_TRACTOR
  6
CONTINUOUS
 62
    1
 10
15833.306111476501
 20
24499.0665329816
 11
18333.306110376499
 21
24498.9923712409
  0
LINE
  8
_0-3_TRACTOR
  6
CONTINUOUS
 62
    1
 10
18333.306110376499
 20
24498.9923712409
 11
18332.9502823445
 21
12503.9923765187
  0
LINE
  8
_0-3_TRACTOR
  6
CONTINUOUS
 62
    1
 10
18332.9502823445
 20
12503.9923765187
 11
15832.950283444497
 21
12504.0665382594
  0
LINE
  8
_0-3_TRACTOR
  6
CONTINUOUS
 62
    1
 10
15832.950283444497
 20
12504.0665382594
 11
15833.306111476501
 21
24499.0665329816
  0
LINE
  8
_0-3_TRACTOR
  6
CONTINUOUS
 62
    1
 10
16091.584013883301
 20
26468.656675436301
 11
18590.473948721701
 21
26394.164437161395
  0
LINE
  8
_0-3_TRACTOR
  6
CONTINUOUS
 62
    1
 10
18590.473948721701
 20
26394.164437161395
 11
18233.0601894785
 21
14404.490529806601
  0
LINE
  8
_0-3_TRACTOR
  6
CONTINUOUS
 62
    1
 10
18233.0601894785
 20
14404.490529806601
 11
15734.170254640099
 21
14478.982768081602
  0
LINE
  8
_0-3_TRACTOR
  6
CONTINUOUS
 62
    1
 10
15734.170254640099
 20
14478.982768081602
 11
16091.584013883301
 21
26468.656675436301
  0
LINE
  8
_0-3_TRACTOR
  6
CONTINUOUS
 62
    1
 10
16816.226069687
 20
28401.229074372797
 11
19302.444233076301
 21
28139.085518218501
  0
LINE
  8
_0-3_TRACTOR
  6
CONTINUOUS
 62
    1
 10
19302.444233076301
 20
28139.085518218501
 11
18044.679450648
 21
16210.210770276701
  0
LINE
  8
_0-3_TRACTOR
  6
CONTINUOUS
 62
    1
 10
18044.679450648
 20
16210.210770276701
 11
15558.4612872587
 21
16472.354326430999
  0
LINE
  8
_0-3_TRACTOR
  6
CONTINUOUS
 62
    1
 10
15558.4612872587
 20
16472.354326430999
 11
16816.226069687
 21
28401.229074372797
  0
LINE
  8
_0-3_TRACTOR
  6
CONTINUOUS
 62
    1
 10
17970.813449260899
 20
30188.764706897298
 11
20414.158727784001
 21
29659.554115621097
  0
LINE
  8
_0-3_TRACTOR
  6
CONTINUOUS
 62
    1
 10
20414.158727784001
 20
29659.554115621097
 11
17875.006310840901
 21
17936.383469267301
  0
LINE
  8
_0-3_TRACTOR
  6
CONTINUOUS
 62
    1
 10
17875.006310840901
 20
17936.383469267301
 11
15431.661032317799
 21
18465.594060543499
  0
LINE
  8
_0-3_TRACTOR
  6
CONTINUOUS
 62
    1
 10
15431.661032317799
 20
18465.594060543499
 11
17970.813449260899
 21
30188.764706897298
  0
LINE
  8
_0-3_TRACTOR
  6
CONTINUOUS
 62
    1
 10
19505.284856344701
 20
31733.402266014797
 11
21857.463931440601
 21
30886.494007298905
  0
LINE
  8
_0-3_TRACTOR
  6
CONTINUOUS
 62
    1
 10
21857.463931440601
 20
30886.494007298905
 11
17793.998106121398
 21
19600.738804989101
  0
LINE
  8
_0-3_TRACTOR
  6
CONTINUOUS
 62
    1
 10
17793.998106121398
 20
19600.738804989101
 11
15441.8190310256
 21
20447.647063705001
  0
LINE
  8
_0-3_TRACTOR
  6
CONTINUOUS
 62
    1
 10
15441.8190310256
 20
20447.647063705001
 11
19505.284856344701
 21
31733.402266014797
  0
LINE
  8
_0-3_TRACTOR
  6
CONTINUOUS
 62
    1
 10
21354.429700357301
 20
32951.628827358298
 11
23553.586984142599
 21
31762.634613253802
  0
LINE
  8
_0-3_TRACTOR
  6
CONTINUOUS
 62
    1
 10
23553.586984142599
 20
31762.634613253802
 11
17848.792744869199
 21
21211.077965651799
  0
LINE
  8
_0-3_TRACTOR
  6
CONTINUOUS
 62
    1
 10
17848.792744869199
 20
21211.077965651799
 11
15649.635461083901
 21
22400.072179756298
  0
LINE
  8
_0-3_TRACTOR
  6
CONTINUOUS
 62
    1
 10
15649.635461083901
 20
22400.072179756298
 11
21354.429700357301
 21
32951.628827358298
  0
LINE
  8
_0-3_TRACTOR
  6
CONTINUOUS
 62
    1
 10
23439.1005413126
 20
33777.247622166498
 11
25415.715840795499
 21
32246.564128478098
  0
LINE
  8
_0-3_TRACTOR
  6
CONTINUOUS
 62
    1
 10
25415.715840795499
 20
32246.564128478098
 11
18071.496438078499
 21
22762.763921559199
  0
LINE
  8
_0-3_TRACTOR
  6
CONTINUOUS
 62
    1
 10
18071.496438078499
 20
22762.763921559199
 11
16094.8811385956
 21
24293.4474152476
  0
LINE
  8
_0-3_TRACTOR
  6
CONTINUOUS
 62
    1
 10
16094.8811385956
 20
24293.4474152476
 11
23439.1005413126
 21
33777.247622166498
  0
LINE
  8
_0-3_TRACTOR
  6
CONTINUOUS
 62
    1
 10
25669.080051612498
 20
34163.667939981497
 11
27352.127190333696
 21
32315.059725988602
  0
LINE
  8
_0-3_TRACTOR
  6
CONTINUOUS
 62
    1
 10
27352.127190333696
 20
32315.059725988602
 11
18482.504979595498
 21
24239.799554403999
  0
LINE
  8
_0-3_TRACTOR
  6
CONTINUOUS
 62
    1
 10
18482.504979595498
 20
24239.799554403999
 11
16799.4578408743
 21
26088.407768396995
  0
LINE
  8
_0-3_TRACTOR
  6
CONTINUOUS
 62
    1
 10
16799.4578408743
 20
26088.407768396995
 11
25669.080051612498
 21
34163.667939981497
  0
LINE
  8
_0-3_TRACTOR
  6
CONTINUOUS
 62
    1
 10
27936.721942660399
 20
34146.605927626602
 11
29273.896655844601
 21
32034.269830690198
  0
LINE
  8
_0-3_TRACTOR
  6
CONTINUOUS
 62
    1
 10
29273.896655844601
 20
32034.269830690198
 11
19138.908062743401
 21
25618.505556832504
  0
LINE
  8
_0-3_TRACTOR
  6
CONTINUOUS
 62
    1
 10
19138.908062743401
 20
25618.505556832504
 11
17801.733349559199
 21
27730.841653768905
  0
LINE
  8
_0-3_TRACTOR
  6
CONTINUOUS
 62
    1
 10
17801.733349559199
 20
27730.841653768905
 11
27936.721942660399
 21
34146.605927626602
  0
LINE
  8
_0-3_TRACTOR
  6
CONTINUOUS
 62
    1
 10
30132.046133281001
 20
34057.1285070827
 11
31161.233807709497
 21
31778.801767827703
  0
LINE
  8
_0-3_TRACTOR
  6
CONTINUOUS
 62
    1
 10
31161.233807709497
 20
31778.801767827703
 11
20229.822112763799
 21
26840.759305919899
  0
LINE
  8
_0-3_TRACTOR
  6
CONTINUOUS
 62
    1
 10
20229.822112763799
 20
26840.759305919899
 11
19200.634438335299
 21
29119.086045174903
  0
LINE
  8
_0-3_TRACTOR
  6
CONTINUOUS
 62
    1
 10
19200.634438335299
 20
29119.086045174903
 11
30132.046133281001
 21
34057.1285070827
  0
LINE
  8
_0-3_TRACTOR
  6
CONTINUOUS
 62
    1
 10
32259.187835184202
 20
33966.068972730798
 11
33039.304831087997
 21
31590.902142231898
  0
LINE
  8
_0-3_TRACTOR
  6
CONTINUOUS
 62
    1
 10
33039.304831087997
 20
31590.902142231898
 11
21643.254378354399
 21
27847.900795885595
  0
LINE
  8
_0-3_TRACTOR
  6
CONTINUOUS
 62
    1
 10
21643.254378354399
 20
27847.900795885595
 11
20863.137382450601
 21
30223.067626384502
  0
LINE
  8
_0-3_TRACTOR
  6
CONTINUOUS
 62
    1
 10
20863.137382450601
 20
30223.067626384502
 11
32259.187835184202
 21
33966.068972730798
  0
LINE
  8
_0-3_TRACTOR
  6
CONTINUOUS
 62
    1
 10
34335.440202145699
 20
33885.014117459803
 11
34921.573971185797
 21
31454.6957834157
  0
LINE
  8
_0-3_TRACTOR
  6
CONTINUOUS
 62
    1
 10
34921.573971185797
 20
31454.6957834157
 11
23260.9066044422
 21
28642.425959561304
  0
LINE
  8
_0-3_TRACTOR
  6
CONTINUOUS
 62
    1
 10
23260.9066044422
 20
28642.425959561304
 11
22674.772835402098
 21
31072.744293605399
  0
LINE
  8
_0-3_TRACTOR
  6
CONTINUOUS
 62
    1
 10
22674.772835402098
 20
31072.744293605399
 11
34335.440202145699
 21
33885.014117459803
  0
LINE
  8
_0-3_TRACTOR
  6
CONTINUOUS
 62
    1
 10
36375.133115983102
 20
33817.658505326399
 11
36813.329262700303
 21
31356.361258547298
  0
LINE
  8
_0-3_TRACTOR
  6
CONTINUOUS
 62
    1
 10
36813.329262700303
 20
31356.361258547298
 11
25004.025072654302
 21
29253.896146598301
  0
LINE
  8
_0-3_TRACTOR
  6
CONTINUOUS
 62
    1
 10
25004.025072654302
 20
29253.896146598301
 11
24565.828925937101
 21
31715.193393377296
  0
LINE
  8
_0-3_TRACTOR
  6
CONTINUOUS
 62
    1
 10
24565.828925937101
 20
31715.193393377296
 11
36375.133115983102
 21
33817.658505326399
  0
LINE
  8
_0-3_TRACTOR
  6
CONTINUOUS
 62
    1
 10
38388.933824409003
 20
33763.845262623203
 11
38715.618590085403
 21
31285.281754484902
  0
LINE
  8
_0-3_TRACTOR
  6
CONTINUOUS
 62
    1
 10
38715.618590085403
 20
31285.281754484902
 11
26823.4708780377
 21
29717.848248769598
  0
LINE
  8
_0-3_TRACTOR
  6
CONTINUOUS
 62
    1
 10
26823.4708780377
 20
29717.848248769598
 11
26496.786112361304
 21
32196.411756907903
  0
LINE
  8
_0-3_TRACTOR
  6
CONTINUOUS
 62
    1
 10
26496.786112361304
 20
32196.411756907903
 11
38388.933824409003
 21
33763.845262623203
  0
LINE
  8
_0-3_TRACTOR
  6
CONTINUOUS
 62
    1
 10
40384.431376650296
 20
33721.869582817402
 11
40627.604430048901
 21
31233.724316539599
  0
LINE
  8
_0-3_TRACTOR
  6
CONTINUOUS
 62
    1
 10
40627.604430048901
 20
31233.724316539599
 11
28689.483442447901
 21
30066.980006333099
  0
LINE
  8
_0-3_TRACTOR
  6
CONTINUOUS
 62
    1
 10
28689.483442447901
 20
30066.980006333099
 11
28446.3103890493
 21
32555.125272610901
  0
LINE
  8
_0-3_TRACTOR
  6
CONTINUOUS
 62
    1
 10
28446.3103890493
 20
32555.125272610901
 11
40384.431376650296
 21
33721.869582817402
  0
LINE
  8
_0-3_TRACTOR
  6
CONTINUOUS
 62
    1
 10
42366.937244802801
 20
33689.6232697866
 11
42547.791430917299
 21
31196.173498212102
  0
LINE
  8
_0-3_TRACTOR
  6
CONTINUOUS
 62
    1
 10
42547.791430917299
 20
31196.173498212102
 11
30584.219426902899
 21
30328.4351132349
  0
LINE
  8
_0-3_TRACTOR
  6
CONTINUOUS
 62
    1
 10
30584.219426902899
 20
30328.4351132349
 11
30403.3652407884
 21
32821.884884809398
  0
LINE
  8
_0-3_TRACTOR
  6
CONTINUOUS
 62
    1
 10
30403.3652407884
 20
32821.884884809398
 11
42366.937244802801
 21
33689.6232697866
  0
LINE
  8
_0-2_FUKUIN
  6
CONTINUOUS
 62
    7
 10
15415.2812095562
 20
8042.7475608816903
 11
15415.2812095562
 21
34188.192546794198
  0
LINE
  8
_0-2_FUKUIN
  6
CONTINUOUS
 62
    7
 10
22116.606155821901
 20
8042.7475608816903
 11
22116.606155821901
 21
27486.867600528501
  0
LINE
  8
_0-2_FUKUIN
  6
CONTINUOUS
 62
    7
 10
15415.2812095562
 20
34188.192546794198
 11
45366.937244802801
 21
34188.192546794198
  0
LINE
  8
_0-2_FUKUIN
  6
CONTINUOUS
 62
    7
 10
22116.606155821901
 20
27486.867600528501
 11
45366.937244802801
 21
27486.867600528501
  0
TEXT
  8
_0-8_HYOU
 62
    7
 10
38000
 20
19312
 40
600
 41
1
 50
0
  1
タイトル     ウィング15ｔ
  0
TEXT
  8
_0-8_HYOU
 62
    7
 10
38000
 20
18312
 40
600
 41
1
 50
0
  1
車両名       ウィング15ｔ
  0
TEXT
  8
_0-8_HYOU
 62
    7
 10
38000
 20
17312
 40
600
 41
1
 50
0
  1
車種         トラック
  0
TEXT
  8
_0-8_HYOU
 62
    7
 10
38000
 20
16312
 40
600
 41
1
 50
0
  1
全長         11995mm
  0
TEXT
  8
_0-8_HYOU
 62
    7
 10
38000
 20
15312
 40
600
 41
1
 50
0
  1
車幅         2500mm
  0
TEXT
  8
_0-8_HYOU
 62
    7
 10
38000
 20
14312
 40
600
 41
1
 50
0
  1
最小回転半径 10000mm
  0
TEXT
  8
_0-8_HYOU
 62
    7
 10
38000
 20
13312
 40
600
 41
1
 50
0
  1
所要道路幅   6800 (6702)mm
  0
TEXT
  8
_0-8_HYOU
 62
    7
 10
38000
 20
12312
 40
600
 41
1
 50
0
  1
旋回方向     右旋回
  0
TEXT
  8
_0-8_HYOU
 62
    7
 10
38000
 20
11312
 40
600
 41
1
 50
0
  1
旋回角度     90.000度
  0
TEXT
  8
_0-8_HYOU
 62
    7
 10
38000
 20
10312
 40
600
 41
1
 50
0
  1
スケール     1/200
  0
TEXT
  8
_0-8_HYOU
 62
    7
 10
38000
 20
9312
 40
600
 41
1
 50
0
  1
走行方法     ルート走行
  0
TEXT
  8
_0-8_HYOU
 62
    7
 10
38000
 20
8312
 40
600
 41
1
 50
0
  1
  刻み角     3度
  0
TEXT
  8
_0-8_HYOU
 62
    7
 10
38000
 20
7312
 40
600
 41
1
 50
0
  1
  表示間隔   4
  0
ENDSEC
  0
EOF
